PrimaNota.ru - самый крупный в мире бесплатный архив песенных текстов, аккордов, табулатур и нот


Haunted - Disturbed - бас-таба, видео

Регистрация Запомнить меня
Войти через:  Facebook Google Twitter Vk Yandex Mail.ru

Haunted - Disturbed - бас-таба, видео

Печатать
Просмотров: 179
Band: Disturbed
Song: Haunted
Tuning: Drop C

This is the first tab for the song Haunted from the new Disturbed album 
Indestructible. It took some time but here it is.


Intro
(0:00-0:13)
Rest
C|-------------------------------------------------------------------------|
A|-------------------------------------------------------------------------|
D|-------------------------------------------------------------------------|
G|-------------------------------------------------------------------------|


(0:14-0:26) 3x
C|-----------------------------------|
A|----9---8---7---7---8---9----------|
D|-000-000-000-000-000-000-----------|
G|----------------------------5—5-4-3|

(0:27-0:30)Then,
C|-----------------------------------|
A|-----------------------------------|
D|5-5-5-5-5-5-5-7-3-3-3-3-2-2-2-1-1-1|
G|-----------------------------------|

(0:31-0:43)3x
C|-----------------------------------|
A|----9---8---7---7---8---9----------|
D|-000-000-000-000-000-000-----------|
G|----------------------------5—5-4-3|


(0:44-0:46)
C|-----------------------------------|
A|-----------------------------------|
D|5-5-5-5-5-5-5-7-3-3-3-3-2-2-2-1-1-1|
G|-----------------------------------|


Main Riff
(0:47-0:50) 
C|---------------------------|
A|---------------------------|
D|---------------------------|
G|--3333---3333---3333---3333|
The guitar does his on thing from (0:50-0:51) then you do,

(0:51-0:59)
C|----------------------------------------------------------------------|
A|----------------------------------------------------------------------|
D|----------------------------------------------------------------------|
G|3333--3333--3333--3333--77779999--3333--3333--3333--3333--77775555----|

Then
(1:00-1:03)                               (1:04-1:07)
C|------------------------------------------------------------|
A|------------------------------------------------------------|
D|------------------------------------555555555777333222------|
G|3333--3333--3333--3333--77779999----------------------------|

Verse
(1:07-1:15)
C|----------------------------------------------------------------------|
A|----------------------------------------------------------------------|
D|----------------------------------------------------------------------|
G|3333--3333--3333--3333--77779999----3333--3333--3333--3333--77775555--|

(1:16-1:23)
C|------------------------------------------------------------|
A|------------------------------------------------------------|
D|------------------------------------555555555777333222------|
G|3333--3333--3333--3333--77779999----------------------------|

(1:24-1:31)
C|----------------------------------------------------------------------|
A|----------------------------------------------------------------------|
D|----------------------------------------------------------------------|
G|3333--3333--3333--3333--77779999--3333--3333--3333--3333--77775555----|

(1:32-1:40)
C|------------------------------------------------------------|
A|------------------------------------------------------------|
D|------------------------------------555555555777333222------|
G|3333--3333--3333--3333--77779999----------------------------|

Chorus
(1:41-1:55)4x
C|-------------------------------------------|
A|-------------------------------------------|
D|-------------------------------------------|
G|999-999-999-9-9-9-9-9-999-999-999-9-9-9-9-9|




Repeat Intro
(1:56-2:04) 2x
C|-----------------------------------|
A|----9---8---7---7---8---9----------|
D|-000-000-000-000-000-000-----------|
G|----------------------------5—5-4-3|

(2:05-2:08)
C|-----------------------------------|
A|-----------------------------------|
D|5-5-5-5-5-5-5-7-3-3-3-3-2-2-2-1-1-1|
G|-----------------------------------|

Repeat Main Riff
(2:09-2:11)
C|---------------------------|
A|---------------------------|
D|---------------------------|
G|--3333---3333---3333---3333|

Verse 2
(2:13-2:21)2x
C|----------------------------------------------------------------------|
A|----------------------------------------------------------------------|
D|----------------------------------------------------------------------|
G|3333--3333--3333--3333--77779999--3333--3333--3333--3333--77775555----|


(2:22-2:29)
C|------------------------------------------------------------|
A|------------------------------------------------------------|
D|------------------------------------555555555777333222------|
G|3333--3333--3333--3333--77779999----------------------------|

(2:30-2:38)2x
C|----------------------------------------------------------------------|
A|----------------------------------------------------------------------|
D|----------------------------------------------------------------------|
G|3333--3333--3333--3333--77779999--3333--3333--3333--3333--77775555----|


(2:39-2:45)
C|------------------------------------------------------------|
A|------------------------------------------------------------|
D|------------------------------------555555555777333222------|
G|3333--3333--3333--3333--77779999----------------------------|

Chorus 2
(2:46-3:02)
C|-------------------------------------------|
A|-------------------------------------------|
D|-------------------------------------------|
G|999-999-999-9-9-9-9-9-999-999-999-9-9-9-9-9|

After the last note in the Chorus hit this last note and let it ring.

C|--------|
A|--------|
D|---5~---|
G|--------|

Then,
(3:05-3:39)8x 
(when you hit the note let it ring for a little than hit the next.)
C|----------|
A|----------|
D|--1~--3~--|
G|----------|

Moment of rest...... then
(3:43-3:46)
Main riff
C|---------------------------|
A|---------------------------|
D|---------------------------|
G|--3333---3333---3333---3333|

Verse 3
(3:47-3:54)2x
C|----------------------------------------------------------------------|
A|----------------------------------------------------------------------|
D|----------------------------------------------------------------------|
G|3333--3333--3333--3333--77779999--3333--3333--3333--3333--77775555----|

(3:55-4:04)
C|------------------------------------------------------------|
A|------------------------------------------------------------|
D|------------------------------------555555555777333222------|
G|3333--3333--3333--3333--77779999----------------------------|

Chorus 2
(4:03-4:11)
C|----------------------------------------------------------------------|
A|----------------------------------------------------------------------|
D|----------------------------------------------------------------------|
G|3333--3333--3333--3333--77779999--3333--3333--3333--3333--77775555----|

(4:12-4:20)
C|------------------------------------------------------------|
A|------------------------------------------------------------|
D|------------------------------------555555555777333222------|
G|3333--3333--3333--3333--77779999----------------------------|

Outro
(4:21-4:35)3x
C|-------------------------|
A|-------------------------|
D|----9---8---7---7---8---9|
G|-000-000-000-000-000-000-|

(4:36-4:37)
C|---|
A|---|
D|---|
G|3-5|

Well thats it. I hope it turns out the way you all wanted it to be. Please rate 
and comment. Enjoy! :)


Добавлено: 03.03.2012
Другие материалы по этой песне:
  • Аккорды и текст

Страница создана 03.03.2012
http://primanota.ru/haunted/disturbed-chords.htm
Привет, Гость.
Предлагаем пройти революционный курс по гитаре.
Подарок от PrimaNota.Ru, забирай!