PrimaNota.ru - самый крупный в мире бесплатный архив песенных текстов, аккордов, табулатур и нот


Haunted - Hollow Ground - текст песни, таба, бас-таба, видео

Регистрация Запомнить меня
Войти через:  Facebook Google Twitter Vk Yandex Mail.ru

Haunted - Hollow Ground - текст песни, таба, бас-таба, видео

Печатать
Просмотров: 210
                      THE HAUNTED - HOLLOW GROUND
               From the Album THE HAUNTED MADE ME DO IT
                    Copyright 2000 EARACHE RECORDS 
                      Version 1.5 - JANUARY 2001

Transcribed by: Haris Durakovic
Corrected and re-written by : Heikki B. Huurinainen 

For Questions, Comments, Newest Version, or Corrections contact
       Haris Durakovic at     :  foreverlord@gmx.de
       Heikki B. Huurinainen at: moon_over_thee@hotmail.com

       Check Out DEATH WARP, With More Transcriptions On It:
                  http://tiger.towson.edu/~dalvis1

Check Out 's Web Page With More Transcriptions on it:
              /index.html

Join the death/black tab emailing list by emailing 

.  - palm mute                     /  - slide up to
\  - slide down to                 ~  - vibrato
h  - hammer on                     b  - bend
p  - pull off                           Suffixes for bend
ph - pinch harmonic                      f - full bend    h - half bend 
*  - see comment                         r - release      t - tap bend
X  - percussion mute                     ~ - vibrato bend
@  - slight palm mute             ()  - ghost note, sustained note
"  - tremolo pick until next note

Tune to Eb (Eb,Ab,Db,Gb,Bb,Eb)

Riff A.1
|------------------------------------------------------------|
|------------------------------------------------------------|
|-12--12-12-12-12--12-12-12-12-11-11-11-11-------------------|Gtr I
|-10--10-10-10-10--10-10-10-10-10-10-10-10--7/9-9-9-9/10-10--|
|------------------------------------------------------------|
|-------------------------------------------5/7-7-7-7/8--8---|
|                                                            |
|------------------------------------------------------------|
|------------------------------------------------------------|
|-12--12-12-12-12--12-12-12-12-11-11-11-11-------------------|Gtr II
|-10--10-10-10-10--10-10-10-10-10-10-10-10--7/9-9-9-9/10-10--|
|------------------------------------------------------------|
|-8---8--8--8--8---8--8--8--8--8--8--8--8---5/7-7-7-7/8--8---|

                                             
|---------------------------------------------|
|---------------------------------------------|
|---------------------------------------------|Gtrs I
|-2--2-2-2-2--2--2-2-2-2----------------------|  & II
|-2--2-2-2-2--2--2-2-2-2----------------------|
|-0--0-0-0-0--0--0-0-0-0-0h2-2-2-3-3-3-5-5-5--|


Riff A.2
|------------------------------------------------------------|
|------------------------------------------------------------|
|-12--12-12-12-12--12-12-12-12-11-11-11-11-------------------|Gtr I
|-10--10-10-10-10--10-10-10-10-10-10-10-10--7/9-9-9-9/10-10--|
|------------------------------------------------------------|
|-------------------------------------------5/7-7-7-7/8--8---|
|                                                            |
|------------------------------------------------------------|
|------------------------------------------------------------|
|(12)(12-12-12-12)(12-12-12-12-12-12-12-12)------------------|Gtr II
|-10--10-10-10-10--10-10-10-10-10-10-10-10--7--7--7--7--7--7-|
|------------------------------------------------------------|
|-8---8--8--8--8---8--8--8--8--8--8--8--8---5--5--5--5--5--5-|

|---------------------------------------------|
|---------------------------------------------|
|---------------------------------------------|Gtr I
|-2--2-2-2-2--2--2-2-2-2----------------------|
|-2--2-2-2-2--2--2-2-2-2----------------------|
|-0--0-0-0-0--0--0-0-0-0-0h2-2-2-3-3-3-5-5-5--|
|                                             |
|---------------------------------------------|
|---------------------------------------------|
|---------------------------------------------|Gtr II
|-5--5--5--5--5--5--5--5----------------------|
|---------------------------------------------|
|-3--3--3--3--3--3--3--3-0h2-2-2-3-3-3-5-5-5--|


Riff B.1
|-------------------------------------------------------|
|-------------------------------------------------------|
|-------------------------------------------------------|Gtrs I
|-------------------------------------2-45754----2------|  & II
|------3-2-23532------3-2-235~------3----------3---321--|
|-1-111-1-1------1-111-1-1-----0-000-0-0------0-0-0-----|
  . ... . .      . ... . .     . ... . .      . . . 


Riff C.1
|--------------------------------------------------------------|
|--------------------------------------------------------------|
|-----------------5\4-4-4/5-5-5/7------------------------------|Gtrs I
|-3------(3)-----------------------2-----(2)-------------------|  & II
|-----------------3\2-2-2/3-3-3/5--2-----(2)-------2------5-7--|
|-1------(1)-----------------------0-----(2)-----0---3--0------|
                                                 .      .
Repeat Riff C.1 (1 time)

Riff B.2 
|-------------------------------------------------------|
|-------------------------------------------------------|
|-------------------------------------------------------|Gtrs I
|-------------------------------------2-45754----2------|  & II
|------3-2-23532------3-2-235~------3----------3---321--|
|-1-111-1-1------1-111-1-1-----0-000-0-0------0-0-0-----|
| . ... . .      . ... . .     . ... . .      . . .     |
|-------------------------------------------------------|
|-------------------------------------------------------|
|-------------------------------------------------------|
|-3--3-3--3-3--3-3--3-3--3-3---2--2-2--2-2--2-2--2-2--2-|
|-3--3-3--3-3--3-3--3-3--3-3---2--2-2--2-2--2-2--2-2--2-|
|-1--1-1--1-1--1-1--1-1--1-1---0--0-0--0-0--0-0--0-0--0-|

Repeat Riff B.2 (1 time)

Riff A.3
|---------------------------------------------------------|
|---------------------------------------------------------|
|-12-12-12-12--12-12-12-12--11-11-11-11-------------------|Gtr I
|-10-10-10-10--10-10-10-10--10-10-10-10--7/9-9-9-9/10-10--|
|---------------------------------------------------------|
|----------------------------------------5/7-7-7-7/8--8---|
|                                                         |
|---------------------------------------------------------|
|---------------------------------------------------------|
|-12-12-12-12--12-12-12-12--11-11-11-11-------------------|Gtr II
|-10-10-10-10--10-10-10-10--10-10-10-10--7/9-9-9-9/10-10--|
|---------------------------------------------------------|
|----------------------------------------5/7-7-7-7/8--8---|

|----------------------------------------|
|----------------------------------------|
|----------------------------------------|Gtrs I
|-2-2-2-2---2-2-2-2----------------------|  & II
|-2-2-2-2---2-2-2-2----------------------|
|-0-0-0-0---0-0-0-0-0h2-2-2-3-3-3-5-5-5--|

Riff A.4
|------------------------------------------------------------|
|------------------------------------------------------------|
|-12--12-12-12-12--12-12-12-12-11-11-11-11-------------------|Gtr I
|-10--10-10-10-10--10-10-10-10-10-10-10-10--7/9-9-9-9/10-10--|
|------------------------------------------------------------|
|-------------------------------------------5/7-7-7-7/8--8---|
|                                                            |
|------------------------------------------------------------|
|------------------------------------------------------------|
|------------------------------------------------------------|
|-10--10-10-10-10--10-10-10-10-10-10-10-10--7--7--7--7--7--7-|
|------------------------------------------------------------|
|-8---8--8--8--8---8--8--8--8--8--8--8--8---5--5--5--5--5--5-|

|---------------------------------------------|
|---------------------------------------------|
|---------------------------------------------|Gtr I
|-2--2-2-2-2--2--2-2-2-2----------------------|
|-2--2-2-2-2--2--2-2-2-2----------------------|
|-0--0-0-0-0--0--0-0-0-0-0h2-2-2-3-3-3-5-5-5--|
|                                             |
|---------------------------------------------|
|---------------------------------------------|
|---------------------------------------------|Gtr II
|-5--5--5--5--5--5--5--5----------------------|
|---------------------------------------------|
|-3--3--3--3--3--3--3--3-0h2-2-2-3-3-3-5-5-5--|

Riff D (Solo)

Repeat Riff B.1 (2 times)(Solo Rhythm)

Repeat Riff C.1 (2 times)

Repeat Riff A.1 (1.5 times)

Riff D 
|----------------------------------|
|----------------------------------|
|--------5------4----4--2--4-------|Gtr I
|-2------5------4----4--2--4--7-7--|
|-2------3------2----2--0--2--5-6--|
|-0--------------------------------|
|                                  |
|----------------------------------|
|----------------------------------|
|--------5------4----4--2--4-------|Gtr II
|-2------5------4----4--2--4--h----|
|-2------3------2----2--0--2-02-2--|
|-0--------------------------------|


Riff F
|-----------------------------------------------------------------|
|-----------------------------------------------------------------|
|-----------------------------------------------------------------|Gtrs I
|----------12-----------------------------12----------------------|  & II
|-------10----10-7----5----4-5--------10------10-7----5----4-5-4--|
|-0--0--------------0----0------0--0----------------0----0--------|

|-------------------------------|
|-------------------------------|
|-------------------------------|Gtrs I
|----------12-------------------|  & II
|-------10----10-7----5----4-5--|
|-0--0--------------0----0------|


Riff G
|--------------------------|
|--------------------------|
|--------------------------|Gtr I
|--------------------------|
|--------3-------------6---|
|-5-bhr--3---5-bhr--7-(7)--|
|                          |
|--------------------------|
|--------------------------|
|--------------------------|Gtr II
|--------------------------|
|--------3-----------------|
|-5-bhr--3---5-bhr--7--7---|

Repeat Riff D (1 time)

Riff H
|----------------------------------------------------|
|----------------------------------------------------|
|-5--------------------------------------------------|Gtr I
|-5--------------------------------------------------|
|-3---2--2-----2-2-2-2--2-2-2-2----------------------|
|-----2--3-----0-0-0-0--0-0-0-0-0h2-2-2-3-3-3-5-5-5--|
|              . . . .  . . . .                      |
|----------------------------------------------------|
|----------------------------------------------------|
|-5--------------------------------------------------|Gtr II
|-5--------------------------------------------------|
|-3---2--2-----2-2-2-2--2-2-2-2----------------------|
|-----2--3-----0-0-0-0--0-0-0-0-0h2-2-2-3-3-3-5-5-5--|
               . . . .  . . . . 
|----------------------------------------------------|
|----------------------------------------------------|
|-5--------------------------------------------------|Gtr I
|-5--------------------------------------------------|
|-3---2--2-----2-2-2-2--2-2-2-2----------------------|
|-----2--3-----0-0-0-0--0-0-0-0-0h2-2-2-3-3-3-5-5-5--|
|              . . . .  . . . .                      |
|----------------------------------------------------|
|----------------------------------------------------|
|----------------------------------------------------|Gtr II
|----------------------------------------------------|
|-3------------2-2-2-2--2-2-2-2----------------------|
|----3--5--7---0-0-0-0--0-0-0-0-0h2-2-2-3-3-3-5-5-5--|
               . . . .  . . . .

Riff C.2
|--------------------------------------------------------------|
|--------------------------------------------------------------|
|-----------------5\4-4-4/5-5-5/7------------------------------|Gtrs I
|-3------(3)-----------------------2-----(2)-------------------|  & II
|-----------------3\2-2-2/3-3-3/5--2-----(2)-------2------5-7--|
|-1------(1)-----------------------0-----(2)-----0---3--0------|
|                                                .      .      |
|--------------------------------------------------------------|
|--------------------------------------------------------------|
|-----------------5\4-4-4/5-5-5/7------------------------------|
|-3--3-3--3-3--3-------------------2--2-2--2-2-2---------------|
|-3--3-3--3-3--3--3\2-2-2/3-3-3/5--2--2-2--2-2-2---2------5-7--|
|-1--1-1--1-1--1-------------------0--0-0--0-0-0-0---3--0------|
                                                 .      .

Repeat Riff C.2 (1 time)

Repeat Riff B.2 (2 times)

Repeat Riff A.1 (2 times)

Riff I.1 
|--------------------------------------------------|
|--------------------------------------------------|
|--------7--6--5----------9----7--6--5----------9--|Gtr I
|-2------7--5--5----5-----9----7--5--5----5-----9--|
|-2------5--4--3----5--5--7----5--4--3----5--5--7--|
|-0-----------------3--2------------------3--2-----|
  * Only on the first time

Repeat Riff I.1 (2 times)

Riff I.2 (Played on Riff I.1)
|-----------------------------------------------|
|-----------------------------------------------|
|-----------------------------------------------|Gtr II
|-2--------------------9----------9----------9--|
|-2------7--7--7--/10-----7--/10-----7--/10-----|
|-0---------------------------------------------|

Riff I.3 (Repeat Until the End)
|----------------------------------|
|----------------------------------|
|----------------------------------|Gtr II
|----------------0h2--2-2-5----hp--|
|------------0-2------------2-121--|
|-3p0--0-0-3-----------------------|
Добавлено: 04.05.2012
Другие материалы по этой песне:

Страница создана 27.02.2012
http://primanota.ru/haunted/hollow-ground-chords.htm
Привет, Гость.
Предлагаем пройти революционный курс по гитаре.
Подарок от PrimaNota.Ru, забирай!