PrimaNota.ru - самый крупный в мире бесплатный архив песенных текстов, аккордов, табулатур и нот


Haunted - My Shadow - текст песни, таба, видео

Регистрация Запомнить меня
Войти через:  Facebook Google Twitter Vk Yandex Mail.ru

Haunted - My Shadow - текст песни, таба, видео

Печатать
Просмотров: 184
ARTIST:The Haunted
SONG:My Shadow
ALBUM:rEVOLVEr
TABBED BY: Sickou
TAB DATE:Nov 11-06 2008 
TUNING: C G C F A D 

PLEASE RATE AND COMMENT

|---------------------------------------------|
|-1/10b-8b-6b-5b5--------1/10b-8b-6b-5b5b-----|
|-----------------6-6-------------------------|     [x2]
|---------------------7b----------------------|
|---------------------------------------------|
|---------------------------------------------|

|---------------------------------------------|
|-1010b-1010b-8-6b----------------------------|
|------------------7/10-9-7-9b-5-7-3b---------|     
|-------------------------------------4-2-4-4-|
|---------------------------------------------|
|---------------------------------------------|

|---------------------------------------------|
|---------------------------------------------|
|---------5-3-5-5--3/6-5-3b--3/6-6b-----------|
|-----------------------------------6-5-6-6---|
|-5-3-5-5-------------------------------------|
|---------------------------------------------|


|---------------------------------------------|
|--------------5h6h5h8h6h5--8-1010b--5-6-55---|
|3/6-6b---------------------------------------|
|------6-5-6-6--------------------------------|
|---------------------------------------------|
|---------------------------------------------|


|-----------------------------------------------|
|-8-6-6-----------------------------------------|
|----8-8-7-6-6----------------------------------|
|-----------8-8-7-6--11^-12/14-14/15-15/17b-19^b-|
|-----------------------------------------------|
|-----------------------------------------------|


|------------------------------------|
|------------------------------------|
|-151515171717191919-14^b------------|
|-------------------------14^-12-11^-|
|------------------------------------|
|------------------------------------|


|-----------------------------------------------|
|-----------------------------------------------|
|-----------------------------------------------|
|-11-12-11-12^--9-11-11-11-9--9-----------------|
|---------------------------11-11-10-9--9-------|
|-------------------------------------11-11-10-9|


|--------------------------------------------------------|
|------------------------------------------2-5-3^-2-3-3^-|
|------------------1/5-5b-3-3b-2-2b-2^-2b----------------|
|--------------------------------------------------------|
|--------------------------------------------------------|
|-1/6-5-3-1-3-5-0^---------------------------------------|


Добавлено: 06.05.2012
Другие материалы по этой песне:
  • Аккорды и текст

Страница создана 26.02.2012
http://primanota.ru/haunted/my-shadow-chords.htm
Привет, Гость.
Предлагаем пройти революционный курс по гитаре.
Подарок от PrimaNota.Ru, забирай!