PrimaNota.ru - самый крупный в мире бесплатный архив песенных текстов, аккордов, табулатур и нот


Haunted - Time Will Not Heal - таба, видео

Регистрация Запомнить меня
Войти через:  Facebook Google Twitter Vk Yandex Mail.ru

Haunted - Time Will Not Heal - таба, видео

Печатать
Просмотров: 70
-------------------------------------------------------------------------------
                             Time (Will Not Heal) - The Haunted
-------------------------------------------------------------------------------
Tabbed by: Colin Jansen
E-mail: cjansen@hotmail.ca

Tuning: D G C F A D

e |---------------------------------|---------------------------------|
B |---------------------------------|---------------------------------|
G |---------------------------------|---------------------------------|
C |---------------------------------|-------------------------5-------|
G |-----------------3---3-----------|-----------5---------5/7-3---4/4-|
D |-0-2-5-2-5-2-0-2---2---2-0-2-5-2-|-5-2-0-5/6---6\5p3p0-3/5---0-2/3-|

e |---------------------------------|---------------------------------|
B |---------------------------------|---------------------------------|
G |---------------------------------|---------------------------------|
C |---------------------------------|---------------------------------|
G |-----------------3---3-----------|-----------------8\7---5/7---4/5-|
D |-0-2-5-2-5-2-0-2---2---2-0-3-6-3-|-6-3-0-3-6-3-0-0-6\5-0-3/5-0-2/3-|

e |---------------------------------|---------------------------------|
B |---------------------------------|---------------------------------|
G |---------------------------------|---------------------------------|
C |---------------------------------|-------------------------5-------|
G |-----------------3---3-----------|-----------5---------5/7-3---4/4-|
D |-0-2-5-2-5-2-0-2---2---2-0-2-5-2-|-5-2-0-5/6---6\5p3p0-3/5---0-2/3-|

e |---------------------------------|---------------------------------|
B |---------------------------------|---------------------------------|
G |---------------------------------|---------------------------------|
C |---------------------------------|---------------------------------|
G |-----------------3---3-----------|-----------------8---------------|
D |-0-2-5-2-5-2-0-2---2---2-0-3-6-3-|-6-3-0-3-6-3-0-0-6---------------|

************************************

| /   slide up
| \   slide down
| h   hammer-on
| p   pull-off
| ~   vibrato
| +   harmonic
| x   Mute note
| b   Bend
| pb  Pre-bend
| br  Bend release
| pbr Pre-bend release
| brb Bend release bend

************************************
Добавлено: 02.06.2016
Другие материалы по этой песне:
  • Аккорды и текст

Страница создана 02.06.2016
http://primanota.ru/haunted/time-will-not-heal-chords.htm
Привет, Гость.
Предлагаем пройти революционный курс по гитаре.
Подарок от PrimaNota.Ru, забирай!