PrimaNota.ru - самый крупный в мире бесплатный архив песенных текстов, аккордов, табулатур и нот


Haunted - The Fallout - текст песни, таба, видео

Регистрация Запомнить меня
Войти через:  Facebook Google Twitter Vk Yandex Mail.ru

Haunted - The Fallout - текст песни, таба, видео

Печатать
Просмотров: 207
----------------------------------------------------------------------------
                       THE FALLOUT - The Haunted
----------------------------------------------------------------------------
Tabbed by: JAmes
Email: the.master.ofpuppets@hotmail.com

Tuning: Drop D

e|-------------------------------------------------------|
B|-------------------------------------------------------|
G|-------------------------------------------------------|
D|----------------6--------4-------------------------6---|
A|---7--4--4/7\4--(6)-------4---7--4--4/7\4-----6---6-6--|
D|------------------(6)-(4)--------------------9---------|

Verse:
e|--------------------|----------------------------------------------|
B|------5---------5---|------7---------7----------7---------7--------|
G|--------6---------6-|x2------9---------9------------9---------9----|
D|----6--------6------|-----------------------------6---------6------|
A|--4--------4--------|----7-----9---7-----9----6--------6-----------|
D|--------------------|----------------------------------------------|

Chorus thingy
e|-------------------------------------------------|
B|-------------------------------------------------|
G|-------------------------------------------------|
D|-6-x-6-x-6-x-6-x-6--6-6--9-x-9-x-9-x-9-x-9--9-9--|
A|-4-x-4-x-4-x-4-x-4--4-4--7-x-7-x-7-x-7-x-7--7-7--|
D|-------------------------------------------------|

e|-------------------------------------------------------|
B|-------------------------------------------------------|
G|-------------------------------------------------------|
D|-------------------------------------------------------|
A|-2-x-2-x-2-x-2-x-2--2-2--1-x-1-x-1-x-1-x-1--1-1-1/6~~--|
D|-2-x-2-x-2-x-2-x-2--2-2--1-x-1-x-1-x-1-x-1--1-1-1/6~~--|

Then:
Guitar I:
e|----------------------------------------------------------|
B|----------------------------------------------------------|
G|----------------------------------------------------------|
D|----------------------------------------------------------|
A|---7--4--4/7\4------------------------7--4--4/7\4--/7-\6--|
D|----------------------------------------------------------|

Guitar II:
e|----------------------------------------------------------|
B|----------------------------------------------------------|
G|----------------------------------------------------------|
D|----------------------------------------------------------|
A|-----------------7--4--4/7\4-/7-/11\----------------------|
D|----------------------------------------------------------|

Then thers a little hip hop interlude and you play this at 3:02
e|--9~~-7~~-5~~-4~~---0~~--2~~--------9~~-7~~-5~~-4~~---0~~--2~~-----------|
B|------------------------------1~~~~~--------------------------1~~~~/2~~~-|
G|-------------------------------------------------------------------------|
D|-------------------------------------------------------------------------|
A|-------------------------------------------------------------------------|
D|-------------------------------------------------------------------------|

You keep playin that electric lead and come in with this steel string like acoustic:
e|--9----9-9---9----9-9--9---9-9---9----9-9---|
B|--------------------------------------------|
G|-----9----------9--------9----------9-------|
D|--------------------------------------------|
A|--------------------------------------------|
D|--------------------------------------------|

e|---------9---------9--|
B|-----7--------7-------|
G|---9---9----9---9-----|
D|----------------------|
A|----------------------|
D|----------------------|

e|--7----7-7---7----7-7---|
B|------------------------|
G|-----9----------9-------|
D|------------------------|
A|------------------------|
D|------------------------|

vote and comment

| /  slide up
| \  slide down
| h  hammer-on
| p  pull-off
| ~  vibrato
| +  harmonic
| x  Mute note
============================================================================
Добавлено: 17.07.2012
Другие материалы по этой песне:

Страница создана 28.03.2012
http://primanota.ru/haunted/the-fallout-chords.htm
Привет, Гость.
Предлагаем пройти революционный курс по гитаре.
Подарок от PrimaNota.Ru, забирай!