PrimaNota.ru - самый крупный в мире бесплатный архив песенных текстов, аккордов, табулатур и нот


Haunted - Abysmal - текст песни, таба, бас-таба, видео

Регистрация Запомнить меня
Войти через:  Facebook Google Twitter Vk Yandex Mail.ru

Haunted - Abysmal - текст песни, таба, бас-таба, видео

Печатать
Просмотров: 185
-------------------------------------------------------------------------------
                         Abysmal(solo) - The Haunted
-------------------------------------------------------------------------------
Tabbed by: pat
Email:   dieteenyboppers@yahoo.com  myspace.com/patfitzdestroystheworld

most of this is right, if anyone sees problems or anything, feel free to fill up
my inbox or myspace with all the hate-mail you can muster...

Tuning: drop C (C G C F A d)

d|---------------------------------------------------------------------------|
A|-12\--12-13-15-13-12----12-------------------------------------------------|
F|--9\-----------------14----14-12-11-12~------------------------------------|
C|---------------------------------------------------------------------------|
G|------------------------------------------7~~~-----------------------------|
C|---------------------------------------------------------------------------|

e|---------------------------------------------------------------------------|
B|--------------------------------12-11h12p11--------------------------------|
G|------------------------3~~~----------------12-11h12p11--------------------|
D|-----------------3-2-0----------------------------------14-13-14-16-14-13--|
A|-3-2-0---5-3-2-------------------------------------------------------------|
E|---------------------------------------------------------------------------|
   x x x   x x x   x x x
e|---------------------------------------------------------------------------|
B|--------------------------------------------------/12-12-12-10-------------|
G|---------------------------------------------------------------12-11~~-----|
D|-11-13~~~--13h14-14/16-16/17-17-16-14-16-14-12~----------------------------|
A|---------------------------------------------------------------------------|
E|---------------------------------------------------------------------------|

e|---------------------------------------------------------------------------|
B|---------------------------------------------------------------------------|
G|-12-14~-12-11~-----------------------------------------------------7-6-7---|
D|---------------13-14~~-------------7-9-10-9------------------9-7-9---------|
A|--------------------------7-9-10-9-------------7-6-7-10-9-10---------------|
E|-------------------------|trem. picking----|-------------------------------|
                                                 x x x  x x  x x x x x x x
e|-----------------7-6-7--10-9-10-15~~~~~~~----------------------------------|
B|---------10-9-10-----------------------------------------------------------|
G|-10-9-10-------------------------------------------------------------------|
D|---------------------------------------------------------------------------|
A|---------------------------------------------------------------------------|
E|---------------------------------------------------------------------------|
    x x  x  x x  x
| /  slide up
| \  slide down
| h  hammer-on
| p  pull-off
| ~  vibrato
| +  harmonic
| x  Mute note
===============================================================================
Добавлено: 29.02.2012
Другие материалы по этой песне:

Страница создана 22.02.2012
http://primanota.ru/haunted/abysmal-chords.htm
Привет, Гость.
Предлагаем пройти революционный курс по гитаре.
Подарок от PrimaNota.Ru, забирай!