PrimaNota.ru - самый крупный в мире бесплатный архив песенных текстов, аккордов, табулатур и нот


Haunted - Dark Intensions - таба, бас-таба, видео

Регистрация Запомнить меня
Войти через:  Facebook Google Twitter Vk Yandex Mail.ru

Haunted - Dark Intensions - таба, бас-таба, видео

Печатать
Просмотров: 155
Уроки эстрадного вокала в Санкт-Петербурге
As recorded by THE HAUNTED
(From the 2000 Album THE HAUNTED MADE ME DO IT)

Transcribed by DoomMaker (DoomMaker@Chello.hu)
        

Words and Music by The Haunted
Arranged by The Haunted

Gtr I (D# G# C# F# A# D#) - 'Rhythm Guitar'
Gtr II (D# G# C# F# A# D#) - 'Rhythm Guitar'

 Intro
  Fast Rock Q=180
       E5             B5 E5  Bb5  E5  D5 E5  Bb5
 4/4
  Gtr I
                      ~      ~        ~      ~
  H     H         E E Q  E E Q    E E Q  E E Q
|-------------||----------------|---------------|
|-------------||o---------------|---------------|
|-------------||----------------|-----7---------|
|-------------||------9------8--|------------8--|
|-------------||o---------------|---------------|
|------12\----||--0-0----0-0----|-0-0----0-0----|
|
| Gtr II
| W               E E Q  E E Q    E E Q  E E Q
|-------------||----------------|---------------|
|-------------||o---------------|---------------|
|-------------||----------------|---------------|
|-------------||----------------|---------------|
|-------------||o-2-2----2-2----|-2-2----2-2----|
|-------------||--0-0----0-0----|-0-0----0-0----|


  E5  B5 E5  Bb5  B5              G5
      ~      ~
  E E Q  E E Q    S S E E E E E E E
|---------------|--------------------||
|---------------|-------------------o||
|---------------|--------------------||
|-----9------8--|---------2-------5--||
|---------------|---------2-------5-o||
|-0-0----0-0----|-0-0-0-0---0-0-0----||
|
| E E Q  E E Q    S S E E E E E E E
|---------------|--------------------||
|---------------|-------------------o||
|---------------|--------------------||
|---------------|---------2-------5--||
|-2-2----2-2----|---------2-------5-o||
|-0-0----0-0----|-0-0-0-0---0-0-0----||


  E5  B5 E5  Bb5  E5  D5 E5  Bb5  E5  B5 E5  Bb5  E5            G5
      ~      ~        ~      ~        ~      ~
  E E Q  E E Q    E E Q  E E Q    E E Q  E E Q    E E E E E E E E
|---------------|---------------|---------------|-----------------|
|---------------|---------------|---------------|-----------------|
|---------------|-----7---------|---------------|-----------------|
|-----9------8--|------------8--|-----9------8--|-------2-------5-|
|---------------|---------------|---------------|-------2-------5-|
|-0-0----0-0----|-0-0----0-0----|-0-0----0-0----|-0-0-0---0-0-0---|
|
| E E Q  E E Q    E E Q  E E Q    E E Q  E E Q    E E E E E E E E
|---------------|---------------|---------------|-----------------|
|---------------|---------------|---------------|-----------------|
|---------------|---------------|---------------|-----------------|
|---------------|---------------|---------------|-------2-------5-|
|-2-2----2-2----|-2-2----2-2----|-2-2----2-2----|-------2-------5-|
|-0-0----0-0----|-0-0----0-0----|-0-0----0-0----|-0-0-0---0-0-0---|


  E5  B5 E5  Bb5  E5  D5 E5  Bb5  E5  B5 E5  Bb5  E5            G5
      ~      ~        ~      ~        ~      ~
  E E Q  E E Q    E E Q  E E Q    E E Q  E E Q    E E E E E E E E
|---------------|---------------|---------------|-----------------|
|---------------|---------------|---------------|-----------------|
|---------------|-----7---------|---------------|-----------------|
|-----9------8--|------------8--|-----9------8--|-------2-------5-|
|---------------|---------------|---------------|-------2-------5-|
|-0-0----0-0----|-0-0----0-0----|-0-0----0-0----|-0-0-0---0-0-0---|
|
|     ~      ~        ~      ~        ~      ~
| E E Q  E E Q    E E Q  E E Q    E E Q  E E Q    E E E E E E E E
|---------------|---------------|---------------|-----------------|
|---------------|---------------|---------------|-----------------|
|---------------|-----7---------|---------------|-----------------|
|-----9------8--|------------8--|-----9------8--|-------2-------5-|
|---------------|---------------|---------------|-------2-------5-|
|-0-0----0-0----|-0-0----0-0----|-0-0----0-0----|-0-0-0---0-0-0---|


   Interlude
    E5  B5  E5  Bb5   E5  D5  E5  Bb5   E5  B5  E5  Bb5   E5            G5
        ~       ~         ~       ~         ~       ~
    E E Q   E E Q     E E Q   E E Q     E E Q   E E Q     E E E E E E E E
||------------------|-----------------|-----------------|-------------------||
||o-----------------|-----------------|-----------------|------------------o||
||------------------|-----7-----------|-----------------|-------------------||
||------9-------8---|-------------8---|-----9-------8---|-------2-------5---||
||o-----------------|-----------------|-----------------|-------2-------5--o||
||--0-0-----0-0-----|-0-0-----0-0-----|-0-0-----0-0-----|-0-0-0---0-0-0-----||
|
|   E E E E E E E E   E E E E E E E E   E E E E E E E E   E E E E E E E E
||------------------|-----------------|-----------------|-------------------||
||o-----------------|-----------------|-----------------|------------------o||
||------------------|-----------------|-----------------|-------------------||
||------------------|-----------------|-----------------|-------2-------5---||
||o-------2-------5-|-------2-------5-|-------2-------5-|-------2-------5--o||
||--0-0-0-0-0-0-0-3-|-0-0-0-0-0-0-0-3-|-0-0-0-0-0-0-0-3-|-0-0-0---0-0-0-----||


    E5            G5  E5            G5  E5            F#  G#G F#F G F#F E
    E E E E E E E E   E E E E E E E E   E E E E E E E E   E E E E E E E E
||------------------|-----------------|-----------------|-------------------||
||o-----------------|-----------------|-----------------|------------------o||
||------------------|-----------------|-----------------|-------------------||
||------------------|-----------------|-----------------|-------------------||
||o-------2-------5-|-------2-------5-|-------2---------|------------------o||
||--0-0-0-0-0-0-0-3-|-0-0-0-0-0-0-0-3-|-0-0-0-0-0-0-0-2-|-4-3-2-1-3-2-1-0---||
|
|   E E E E E E E E   E E E E E E E E   E E E E E E E E   E E E E E E E E
||------------------|-----------------|-----------------|-------------------||
||o-----------------|-----------------|-----------------|------------------o||
||------------------|-----------------|-----------------|-------------------||
||------------------|-----------------|-----------------|-------------------||
||o-------2-------5-|-------2-------5-|-------2---------|------------------o||
||--0-0-0-0-0-0-0-3-|-0-0-0-0-0-0-0-3-|-0-0-0-0-0-0-0-2-|-4-3-2-1-3-2-1-0---||


    F#F E5                F#G#G F#F   F#F E5                F#G#G F#F
    E E H    +Q     +Q.   E E E E E   E E H    +Q     +Q.   E E E E E
||----------------|-----------------|---------------|-------------------||
||o---------------|-----------------|---------------|------------------o||
||----------------|-----------------|---------------|-------------------||
||----------------|-----------------|---------------|-------------------||
||o-----2----(2)--|-(2)-------------|-----2----(2)--|-(2)--------------o||
||--2-1-0----(0)--|-(0)---2-4-3-2-1-|-2-1-0----(0)--|-(0)---2-4-3-2-1---||
|
|   E E H    +Q     +Q.   E E E E E   E E H    +Q     +Q.   E E E E E
||----------------|-----------------|---------------|-------------------||
||o---------------|-----------------|---------------|------------------o||
||----------------|-----------------|---------------|-------------------||
||----------------|-----------------|---------------|-------------------||
||o-----2----(2)--|-(2)-------------|-----2----(2)--|-(2)--------------o||
||--2-1-0----(0)--|-(0)---2-4-3-2-1-|-2-1-0----(0)--|-(0)---2-4-3-2-1---||


   Bridge
    E5    B5 E5    Bb5  E5    D5 E5    Bb5
          ~        ~          ~        ~
    S S E Q  S S E Q    S S E Q  S S E Q
||--------------------|-------------------|
||o-------------------|-------------------|
||--------------------|-------7-----------|
||--------9--------8--|----------------8--|
||o-------------------|-------------------|
||--0-0-0----0-0-0----|-0-0-0----0-0-0----|
|
|         ~        ~          ~        ~
|   S S E Q  S S E Q    S S E Q  S S E Q
||--------------------|-------------------|
||o-------------------|-------------------|
||--------------------|-------7-----------|
||--------9--------8--|----------------8--|
||o-------------------|-------------------|
||--0-0-0----0-0-0----|-0-0-0----0-0-0----|


  E5    B5 E5    Bb5  E5              G5
        ~        ~
  S S E Q  S S E Q    S S E E E E E E E   4x
|-------------------|---------------------||
|-------------------|--------------------o||
|-------------------|---------------------||
|-------9--------8--|---------2-------5---||
|-------------------|---------2-------5--o||
|-0-0-0----0-0-0----|-0-0-0-0---0-0-0-----||
|
|       ~        ~
| S S E Q  S S E Q    S S E E E E E E E   4x
|-------------------|---------------------||
|-------------------|--------------------o||
|-------------------|---------------------||
|-------9--------8--|---------2-------5---||
|-------------------|---------2-------5--o||
|-0-0-0----0-0-0----|-0-0-0-0---0-0-0-----||


 Outro
  E5
  W          +W           +W           +W
|----------|------------|------------|------------|
|----------|------------|------------|------------|
|----------|------------|------------|------------|
|----------|------------|------------|------------|
|-2--------|-(2)--------|-(2)--------|-(2)--------|
|-0--------|-(0)--------|-(0)--------|-(0)--------|
|
| W          +W           +W           +W
|----------|------------|------------|------------|
|----------|------------|------------|------------|
|----------|------------|------------|------------|
|----------|------------|------------|------------|
|-2--------|-(2)--------|-(2)--------|-(2)--------|
|-0--------|-(0)--------|-(0)--------|-(0)--------|


  +W           +W           +W           +W
|------------|------------|------------|--------*|
|------------|------------|------------|--------*|
|------------|------------|------------|--------*|
|------------|------------|------------|--------*|
|-(2)--------|-(2)--------|-(2)--------|-(2)----*|
|-(0)--------|-(0)--------|-(0)--------|-(0)----*|
|
| +W           +W           +W           +W
|------------|------------|------------|--------*|
|------------|------------|------------|--------*|
|------------|------------|------------|--------*|
|------------|------------|------------|--------*|
|-(2)--------|-(2)--------|-(2)--------|-(2)----*|
|-(0)--------|-(0)--------|-(0)--------|-(0)----*|



Duration Legend
---------------
W - whole; H - half; Q - quarter; E - 8th; S - 16th; T - 32nd; X - 64th; a - acciaccatura
+ - note tied to previous; . - note dotted; .. - note double dotted
Uncapitalized letters represent notes that are staccato (1/2 duration)
Irregular groupings are notated above the duration line
Duration letters will always appear directly above the note/fret number it represents the
duration for.  Duration letters with no fret number below them represent rests.  Multi-
bar rests are notated in the form Wxn, where n is the number of bars to rest for.  Low
melody durations appear below the staff

Tablature Legend
----------------
 h   - hammer-on
 p   - pull-off
 b   - bend
 pb  - pre-bend
 r   - bend release (if no number after the r, then release immediately)
 /\  - slide into or out of (from/to "nowhere")
 s   - legato slide
 S   - shift slide
 - natural harmonic
[n]  - artificial harmonic
n(n) - tapped harmonic
 ~   - vibrato
 tr  - trill
 T   - tap
 TP  - trem. picking
 PM  - palm muting
\n/  - tremolo bar dip; n = amount to dip
 \n  - tremolo bar down
 n/  - tremolo bar up
/n\  - tremolo bar inverted dip
 =   - hold bend; also acts as connecting device for hammers/pulls
 <> - volume swell (louder/softer)
 x   - on rhythm slash represents muted slash
 o   - on rhythm slash represents single note slash

Misc Legend
-----------
 |  - bar
||  - double bar
||o - repeat start
o|| - repeat end
*|  - double bar (ending)
 :  - bar (freetime)
 $  - Segno
 &  - Coda
Tempo markers -  = BPM(8/16=s8/s16), where s8 = swing 8ths, s16 = swing 16ths

Добавлено: 14.04.2012
Другие материалы по этой песне:

Страница создана 23.02.2012
http://primanota.ru/haunted/dark-intensions-chords.htm
Привет, Гость.
Предлагаем пройти революционный курс по гитаре.
Подарок от PrimaNota.Ru, забирай!