PrimaNota.ru - самый крупный в мире бесплатный архив песенных текстов, аккордов, табулатур и нот


Haste The Day - This Time Its Real - текст песни, таба, видео

Регистрация Запомнить меня
Войти через:  Facebook Google Twitter Vk Yandex Mail.ru

Haste The Day - This Time Its Real - текст песни, таба, видео

Печатать
Просмотров: 195
Уроки эстрадного вокала в Санкт-Петербурге
This Time Its Real
Haste the Day
6/8 time

Intro
D|-----------------|
A|-----------------|
F|-----------------|
C|-----------5-3-2-|
G|-5-7-8-000-------|
C|-5-7-8-000-------|
         ...
Verse 1 2x
D|----------------------------------------------|
A|----------------------------------------------|
F|----------------------------------------------|
C|-----3-2-0-----5-3-2-----3-2-3-----320--------|
G|-000-------000-------000-------000------------|
C|-000-------000-------000-------000----320-(5)-|
   ...       ...       ...       ...
D|-----------------------------------------------|
A|-----------------------------------------------|
F|-----------------------------------------------|
C|-----3-2-0-----5-3-2-----3-2-3-----320-----235-|
G|-000-------000-------000-------000-----000-----|
C|-000-------000-------000-------000-----000-----|
   ...       ...       ...       ...     ...
Breakdown 1a 2x
D|----------------------------------|
A|----------------------------------|
F|----------------------------------|
C|---------------------------8---7\-|
G|-0000---00-00---0000---000-8---7\-|
C|-0000---00-00---0000---000-8---7\-|
   ....   .. ..   ....   ...
Breakdown 1b 2x
D|----------------------------------|
A|----------------------------------|
F|----------------------------------|
C|---------------------------8---7\-|
G|-0000---00-00---0000---000-8---7\-|
C|-0000---00-00---0000---000-8---7\-|
|| ....   .. ..   ....   ...
D|----------------------------------|
A|----------------------------------|
F|----------------------------------|
C|----------------------------------|
G|----------------------------------|
C|-00000000000000000000000000000000-

Play Verse 1 2x
Verse 2 2x
D|-------------------------------------------------------------|
A|-------------------------------------------------------------|
F|-------------------------------------5-7-----5-7-------------|
C|---------------------3-2-----3-2-----3-5-----3-5-----5-----7-|
G|-000-3-5-000-3-5-000-----000-----000-----000-----000---000---|
C|-000-----000-----000-----000-----000-----000-----000---000---|
   ...     ...     ...     ...     ...     ...     ...   ...
D|---------------------------------------------------------------|
A|---------------------------------------------------------------|
F|-------------------------------------5-7-----5-7-----5---------|
C|---------------------3-2-----3-2-----3-5-----3-5-----5-----320-|
G|-000-3-5-000-3-5-000-----000-----000-----000-----000-3-000-----|
C|-000-----000-----000-----000-----000-----000-----000---000-----|
   ...     ...     ...     ...     ...     ...     ...   ...
Play Breakdown 1a 2x
Play Breakdown 1b 2x
Chorus 2x
D|--------------------------------------------------------|
A|--------------------------------------------------------|
F|--------------------------------------------------------|
C|-1010101010101010121212-7-7-5-----5---5--5---5--5---5---|
G|-8-8-8-8-8-8-8-8-101010-5-5-3---003---3003---3003---300-|
C|--------------------------------00-----00-----00-----00-|
                                  ..    ...    ...    ...
D|-------------------------------|
A|-------------------------------|
F|-------------------------------|
C|-7-7-7-1010101010--------------|
G|-5-5-5-8-8-8-8-8-0---7---5---3-|
C|-----------------0---7---5---3-|
                   .   .   .   .
Breakdown 2a
D|---------------------------------------------------|
A|---------------------------------------------------|
F|---------------------------------------------------|
C|---------------------------------------------------|
G|-0-0-00-00---0-0-00-00---0-00000-00-00---0-0-00-00-|
C|-0-0-00-00---0-0-00-00---0-00000-00-00---0-0-00-00-|
   . . .. ..   . . .. ..   . ..... .. ..   . . .. ..
D|---------------------------------------|
A|---------------------------------------|
F|---------------------------------------|
C|---------------------------------------|
G|-0-00000-00-00---0-0-00-00-5---7---8---|
C|-0-00000-00-00---0-0-00-00-5---7---8---|
   . ..... .. ..   . . .. .. .   .   .
Breakdown 2b 2x (2nd ending is intro)
D|---------------------------------------------------|
A|---------------------------------------------------|
F|---------------------------------------------------|
C|---------------------------------------------------|
G|-0-0-00-00---0-0-00-00---0-00000-00-00---0-0-00-00-|
C|-0-0-00-00---0-0-00-00---0-00000-00-00---0-0-00-00-|
   . . .. ..   . . .. ..   . ..... .. ..   . . .. ..   1st ending
D|-----------------------------------------------------|-------------|
A|-----------------------------------------------------|-------------|
F|-----------------------------------------------------|-------------|
C|-----------------------------------------------------|-------------|
G|-0-00000-00-00---0-0-00-00-0-00000-00-00---0-0-00-00-|-5---7---8---|
C|-0-00000-00-00---0-0-00-00-0-00000-00-00---0-0-00-00-|-5---7---8---|
   . ..... .. ..   . . .. .. . ..... .. ..   . . .. ..   .   .   .
Play Chorus 2x
End with:
D|------||
A|------||
F|------||
C|------||
G|-0~~~-||
C|-0~~~-||
Добавлено: 19.04.2012
Другие материалы по этой песне:
  • Аккорды и текст

Страница создана 19.04.2012
http://primanota.ru/haste-the-day/this-time-its-real-chords.htm
Привет, Гость.
Предлагаем пройти революционный курс по гитаре.
Подарок от PrimaNota.Ru, забирай!