PrimaNota.ru - самый крупный в мире бесплатный архив песенных текстов, аккордов, табулатур и нот


Haste The Day - Stitches - текст песни, таба, видео

Регистрация Запомнить меня
Войти через:  Facebook Google Twitter Vk Yandex Mail.ru

Haste The Day - Stitches - текст песни, таба, видео

Печатать
Просмотров: 145
-------------------------------------------------------------------------------
                             STITCHES - HASTE THE DAY
-------------------------------------------------------------------------------
Tabbed by: "Crash" Cody Mask
Email:PyroX7@gmail.com

Tuning: Drop D

I'll make this a simple as possible, im sure it's not absolutely perfect, but at least
be able to play the song in case you're totally stumped, it's pretty easy to catch onto
a while anyway. Pretty much all the riffs are based off of the D minor chord. mostly in 
sweep-picking fashion.


        Five words.. five words is all it would take.. heart and  mind

e|-0----------------5---------------------------------------5---55-----5--55-|
B|-6----------------6---------------------------------------6---66-----6--66-|
G|-7----------------7------------------------------------7--7---77---7-7--77-|
D|-7----------------7----------------------------------7-----------7---------|
A|-5----------------5--------------------------------------------------------|
D|---------------------------------------------------(10)---------(7)--------|

                                         probably another guitar ^

              G5                B5
You still can hold your self together


Main riff:

e|---------------------------------------------------------------------------|
B|----------------6-------------9^---6---------------------------------------|
G|------------------7------------------7-------------------------------------|
D|--------------------7------------------7-----------------------------------|
A|----------------------8------------------8-5-------------------------------|
D|-----------0------------0--------------------0-----------------------------|

                                         x x x
e|---------------------------------------------------------------------------|
B|--------------6-------------------------------6----------------------------|
G|----------------7------------------5-------5----7--------------------------|
D|------------------7-------------7------5-7---------------------------------|
A|--------------------8------------------------------------------------------|
D|-----------0----------0----------------------------------------------------|


e|---------------------------------------------------------------------------|
B|----------------6-------------9^---6---------------------------------------|
G|------------------7------------------7-------------------------------------|
D|--------------------7------------------7-----------------------------------|
A|----------------------8------------------8-5-------------------------------|
D|-----------0------------0--------------------0-----------------------------|


e|---------------------------------------------------------------------------|
B|--------------6------------------------------------------------------------|
G|----------------7-------------------------9-9---9----9---------------------|
D|------------------7-----------------------9-9---9----9---------------------|
A|--------------------8---------------------7-7---7----7---------------------|
D|-----------0----------0----------------------------------------------------|


e|---------------------------------------------------------------------------|
B|----------------6-------------9^---6---------------------------------------|
G|------------------7------------------7-------------------------------------|
D|--------------------7------------------7-----------------------------------|
A|----------------------8------------------8-5-------------------------------|
D|-----------0------------0--------------------0-----------------------------|

                                         x
e|---------------------------------------------------------------------------|
B|--------------6--------------------------6---------------------------------|
G|----------------7------------------5-------5-7-----------------------------|
D|------------------7-------------7------5-----------------------------------|
A|--------------------8------------------------------------------------------|
D|-----------0----------0----------------------------------------------------|

e|---------------------------------------------------------------------------|
B|----------------6-------------9^---6---------------------------------------|
G|------------------7------------------7-------------------------------------|
D|--------------------7------------------7-----------------------------------|
A|----------------------8------------------8-5-------------------------------|
D|-----------0------------0--------------------0-----------------------------|

                                         XXXXX
e|---------------------------------------------------------------------------|
B|--------------6------------------------------------------------------------|
G|----------------7------------------5---------------------------------------|
D|------------------7-------------7------00235-------------------------------|
A|--------------------8------------------00235-------------------------------|
D|-----------0----------0----------------00235-------------------------------|


Verse Riff: Just a couple triads in the Dm bar Chord listen for the timing and repeats
all palm muted a little


e|-----------------------------------------5-----5-----5-----5------------------|
B|-----6------6------6------6------------6-----6-----6-----6--------------------|
G|-------7------7------7------7--------7-----7-----7-----7----------------------|
D|---------7------7------7------7-----------------------------------------------|
A|------------------------------------------------------------------------------|
D|------------------------------------------------------------------------------|


VERSE 1
D5                                    Bb5             Am5
Alone… Alone… All alone you have this conversation to satisfy your most
G5        F5     D5
intimate inner thoughts.
                              B5
Then you bite your lip when it matters most.
               A5
A shade of red in sight.
                         G5
Can you taste the blood?
         F5        D5
Taste it on your lips.


CHORUS

D5
Rip the seam.
           B5      F5                           G5
Then I'll show you how the strings become the stitches in your mouth.
D5                     B5
In your silence we are louder.
F5                            G5               D5
When the strings become the stitches in your mouth.

VERSE 2:
D5             B5           A5                       G5      F5         D5
Your growing imagination preparing you for what your heart requires to say.
                              B5
Then you bit your lip when it matters most.
                 A5
A shade of red in sight.
                        G5         F5       D5
Can you taste the blood? Taste it on your lips.

Bridge is the same as the intro

the YOU'RE WORTH MORE THAN THIS part is all D5 and the riff at the end of that is just
down the main riff a couple of times.

btw theres a part in the second and last chorus where he make this cool slide
to do that just start on the third fret, slowly slide up and end on the 9th fret with him.

hope this helps you figure this out, I know there really wasn't a tab for this until
so if you were stumped before, now you can play along with it. If you have any comments or
send me an email.
Amazing song by the way, one of my favorites. Peace out
~Crash


| /  slide up
| \  slide down
| h  hammer-on
| p  pull-off
| ~  vibrato
| +  harmonic
| x  Mute note
Добавлено: 29.02.2012
Другие материалы по этой песне:

Страница создана 29.02.2012
http://primanota.ru/haste-the-day/stitches-chords.htm
Привет, Гость.
Предлагаем пройти революционный курс по гитаре.
Подарок от PrimaNota.Ru, забирай!