PrimaNota.ru - самый крупный в мире бесплатный архив песенных текстов, аккордов, табулатур и нот


Gym Class Heroes - Naked Peekaboo - аккорды и текст, таба, видео

Регистрация Запомнить меня
Войти через:  Facebook Google Twitter Vk Yandex Mail.ru

Gym Class Heroes - Naked Peekaboo - аккорды и текст, таба, видео

Печатать
Просмотров: 192
Уроки эстрадного вокала в Санкт-Петербурге
Naked Peekaboo
Gym Class Heroes
Standard Tuning (E A D G B E)

INTRO
e|--0--3--0--3-----5----7h8--7----5-----3----------|
B|-------------------------------------------------|
G|-------------------------------------------------|
D|-------------------------------------------------|
A|-------------------------------------------------|
E|-------------------------------------------------|

e|--0--3--0--3-----5----7h8--7----5-----3--0--5/3--|
B|-------------------------------------------------|
G|-------------------------------------------------|
D|-------------------------------------------------|
A|-------------------------------------------------|
E|-------------------------------------------------|

Vocals kick in

Verse:
e|-------------------------------------------------|
B|-------------------------------------------------|
G|--4----5----7--5--4------------------------------|  [ x 4 ]
D|-------------------------------------------------|
A|-------------------------------------------------|
E|-------------------------------------------------|

CHORUS
e|--0--3--0--3-----5----7h8--7----5-----3----------|
B|-------------------------------------------------|
G|-------------------------------------------------|  [ x 2 ]
D|-------------------------------------------------|
A|-------------------------------------------------|
E|-------------------------------------------------|

e|--0--3--0--3-----5----7h8--7----5-----3--0--5/3--|
B|-------------------------------------------------|
G|-------------------------------------------------|
D|-------------------------------------------------|
A|-------------------------------------------------|
E|-------------------------------------------------|

Second time round, play the VERSE 8 times 
and the first line of the CHORUS seven times
the song with:

e|--7h8--7----5-----3--0--5/3--|
B|-----------------------------|
G|-----------------------------|
D|-----------------------------|
A|-----------------------------|
E|-----------------------------|
Добавлено: 30.08.2015
Другие материалы по этой песне:
  • Аккорды и текст

Страница создана 12.07.2012
http://primanota.ru/gym-class-heroes/naked-peekaboo-chords.htm
Привет, Гость.
Предлагаем пройти революционный курс по гитаре.
Подарок от PrimaNota.Ru, забирай!