PrimaNota.ru - самый крупный в мире бесплатный архив песенных текстов, аккордов, табулатур и нот


Gossip - Nite - таба, видео

Регистрация Запомнить меня
Войти через:  Facebook Google Twitter Vk Yandex Mail.ru

Gossip - Nite - таба, видео

Печатать
Просмотров: 108
Gossip  "Nite"
tabbed by matthieu gueguen

Riff A
E-----------------------------------------------------------------
A-----------------------------------------------------------------
D-----------------------------------------------------------------
G--2--2--5--2--0--0--2--5----2--2--5--2--0--0--2--5--2------------
B--2-------------------------2------------------------------------
E--0-------------------------0------------------------------------

Riff B
E-----------------------------------------
A-----------------------------------------
D-----------------------------------------
G--2--7--9--7--9--0--2--0--2--0--5--5-----
B--2--------------------------------------
E--0--------------------------------------

Play 4xA then 4xB then 4xA then 4xB and 2xA
     
Добавлено: 16.10.2013
Другие материалы по этой песне:
  • Аккорды и текст

Страница создана 02.08.2013
http://primanota.ru/gossip/nite-chords.htm
Привет, Гость.
Предлагаем пройти революционный курс по гитаре.
Подарок от PrimaNota.Ru, забирай!