PrimaNota.ru - самый крупный в мире бесплатный архив песенных текстов, аккордов, табулатур и нот


Gossip - Where The Girls Are - таба, видео

Регистрация Запомнить меня
Войти через:  Facebook Google Twitter Vk Yandex Mail.ru

Gossip - Where The Girls Are - таба, видео

Печатать
Просмотров: 142
Уроки эстрадного вокала в Санкт-Петербурге
The Gossip - Where the girls are
Standard tuning
E A D G B e
Tabber: Adam (TheFuneralMarch@hotmail.com)
 
 
e----------------------------
B----------------------------
G----------------------------
D----------------------------
A-----0-2-2-0-4-4-4-7-7-7----
E-2-2------------------------
 
e----------------------------
B----------------------------
G----------------------------
D-(4)/7----------------------
A-(4)/7----------------------
E-(2)/5----------------------
 
e----------------------------
B----------------------------
G----------------------------
D----------------------------
A-4-4-4-2-0-0-0--------------
E---------------0-2-2-3-2-2--
 
e----------------------------
B----------------------------
G----------------------------
D----------------------------
A-4-4-4-4-4------------------
E-----------5-5-5-5-4-5/2----
     
Добавлено: 15.07.2013
Другие материалы по этой песне:
  • Аккорды и текст

Страница создана 15.07.2013
http://primanota.ru/gossip/where-the-girls-are-chords.htm
Привет, Гость.
Предлагаем пройти революционный курс по гитаре.
Подарок от PrimaNota.Ru, забирай!