PrimaNota.ru - самый крупный в мире бесплатный архив песенных текстов, аккордов, табулатур и нот


Gossip - Men In Love - текст песни, бас-таба, видео

Регистрация Запомнить меня
Войти через:  Facebook Google Twitter Vk Yandex Mail.ru

Gossip - Men In Love - текст песни, бас-таба, видео

Печатать
Просмотров: 134
Tabbed By: CSC      Tuning: EADG

Verse
G---------------------------------------------------------|
D---55-------------55----------55-------------55--9-10----| x6
A-----7-7-75-7-------7-----------7-7-75-7-------7---------|
E--7--------------7----7-8----7--------------7------------|

Chorus (0:45)
G---------------------7-7----------------------7-7----|
D---------------5-5-----------------------------------|
A--3333-35-35--------5-5-----3333-35-35-------5-5-----|
E--------------3-3----------------------3333----------|

G---------------------7-7-----------|
D---------------5-5------------5>---|
A--3333-35-35--------5-5----3-------|
E--------------3-3------------------|

Verse x6

Chorus #2 (1:43)
G---------------------7-7----------------------7-7----|
D---------------5-5----------------------5-5----------| x3
A--3333-35-35--------5-5-----3333-35-35-------5-5-----|
E--------------3-3----------------------3-3-----------|

G---------------------7-7-----------|
D---------------5-5------------5>---|
A--3333-35-35--------5-5----3-------|
E--------------3-3------------------|

Bridge (2:12)
G-----------------------------------------------|
D-----------------------------------------------| x2
A----------11-333-333-33-555-555-53-------------|
E--333-333--------------------------333-333-33--|

Repeat Chorus #2 (2:27)

Bridge #2 (2:56)
G------------------------------------------|
D------------------------------------------| x2
A--3--1-3\---3--1-3\---3--1-3\---3--1-3\---|
E------------------------------------------|

Repeat Chorus #2 (3:10)
Добавлено: 25.06.2012
Другие материалы по этой песне:
  • Аккорды и текст

Страница создана 25.06.2012
http://primanota.ru/gossip/men-in-love-chords.htm
Привет, Гость.
Предлагаем пройти революционный курс по гитаре.
Подарок от PrimaNota.Ru, забирай!