PrimaNota.ru - самый крупный в мире бесплатный архив песенных текстов, аккордов, табулатур и нот


Gojira - Possessed - таба, видео

Регистрация Запомнить меня
Войти через:  Facebook Google Twitter Vk Yandex Mail.ru

Gojira - Possessed - таба, видео

Печатать
Просмотров: 36
Уроки эстрадного вокала в Санкт-Петербурге
[BREAK]
D|----------------------------------------------------------------------------|
A|----------------------------------------------------------------------------|
F|----------------------------------------------------------------------------|
C|----------------------------------------------------------------------------|
G|------7---6-------4---6---7---0---------7---6--------4---6---7--10----------|
C|------7---6-------4---6---7---0---------7---6--------4---6---7--10----------|

D|----------------------------------------------------------------------------|
A|----------------------------------------------------------------------------|
F|----------------------------------------------------------------------------|
C|----------------------------------------------------------------------------|
G|------7---6-------4---6---7---0---------7---6--------4---6---7--10--11--2--1|
C|------7---6-------4---6---7---0---------7---6--------4---6---7--10--11--2--1|

D|----------------------------------------------------------------------------|x8
A|----------------------------------------------------------------------------|
F|----------------------------------3-----------------------------------------|
C|----------------------------------3-----------------------------------------|
G|----------0--0--0--0-0--0--0--0---3-----------------------------------------|
C|----------0--0--0--0-0--0--0--0---------------------------------------------|

D|----------------------------------------------------------------------------|
A|----------------------------------------------------------------------------|
F|----------------------------------------------------------------------------|
C|----------------------------------------------------------------------------|
G|------7---2---4---3---------------------------------------------------------|
C|------7---2---4---3---------------------------------------------------------|
Добавлено: 20.08.2017
Вам также может быть интересно:
Другие материалы по этой песне:
  • Аккорды и текст

Страница создана 20.08.2017
http://primanota.ru/gojira/possessed-chords.htm
Привет, Гость.
Предлагаем пройти революционный курс по гитаре.
Подарок от PrimaNota.Ru, забирай!