PrimaNota.ru - самый крупный в мире бесплатный архив песенных текстов, аккордов, табулатур и нот


Gojira - Of Blood And Salt - таба, видео

Регистрация Запомнить меня
Войти через:  Facebook Google Twitter Vk Yandex Mail.ru

Gojira - Of Blood And Salt - таба, видео

Печатать
Просмотров: 140
Author/Artist: Gojira
Title: Of Blood And Salt
Album: Sea Shepherd EP
Transcribed by: Jaymz88
It's not perfect but I don't want to listen to this song
too much before the entire EP is release.
I'll correct this tab later if there is mistakes.
No solo and I will never be able to find it by ears...
Tunning: D standard


Main Riff*
--||--------------------------------------------------------------------------|
--||--------------------------------------------------------------------------|
--||--------------------------------------------------------------------------|
--||--------------------------------------------------------------------------|
--||--2-2-2-2-2-----2-2-2-----3-3-3-3-3-----3-3-3-----2-2-2-2-2-----2-2-2-----|
--||--2-2-2-2-2--0--2-2-2--0--3-3-3-3-3--0--3-3-3--0--2-2-2-2-2--0--2-2-2--0--|
                 -         -             -         -             -         -

----------------------||------------------------------------------------------|
----------------------||------------------------------------------------------|
----------------------||------------------------------------------------------|
----------------------||------------------------------------------------------|
-3-3-3-3-3-----3-3-3--||------------------------------------------------------|
-3-3-3-3-3--0--3-3-3--||------------------------------------------------------|
            -

-||---------------------------------------------------------------------------|
-||---------------------------------------------------------------------------|
-||---------------------------------------------------------------------------|
-||--9-9-9-9-9-9-9-9-9-9-9-9-9-9-----8-8-8-8-8-8-8-8-8-8-8-8--9-9-9-9-9-9-9-9-|
-||--7-7-7-7-7-7-7-7-7-7-7-7-7-7-777-7-7-7-7-7-7-7-7-7-7-7-7--7-7-7-7-7-7-7-7-|
-||--0-0-0-0-0-0-0-0-0-0-0-0-0-0-----0-0-0-0-0-0-0-0-0-0-0-0--0-0-0-0-0-0-0-0-|
                                 ---

------------------------------------------------------------------------------|
------------------------------------------------------------------------------|
------------------------------------------------------------------------------|
-9-9-9-9-9-9-----8-8-8-8-8-8-8------------------------------------------------|
-7-7-7-7-7-7-777-7-7-7-7-7-7-7---------------3--------------------------------|
-0-0-0-0-0-0-----0-0-0-0-0-0-0--0-0-0-0-0-0--1--------------------------------|
             ---                - - - - - -


 --||---------------------------------------------------------------------------|
--||----------------------------------------------------------------------------|
--||----------------------------------------------------------------------------|
--||----------------------------------------------------------------------------|
--||--2-2-2-2-2-----2-2-2-----3-3-3-3-3-----3-3-3-----2-2-2-2-2-----2-2-2-------|
--||--2-2-2-2-2--0--2-2-2--0--3-3-3-3-3--0--3-3-3--0--2-2-2-2-2--0--2-2-2--0----|
                 -         -             -         -             -         -

----------------------||------------------------------------------------------|
----------------------||------------------------------------------------------|
----------------------||------------------------------------------------------|
----------------------||------------------------------------------------------|
-3-3-3-3-3-----3-3-3--||------------------------------------------------------|
-3-3-3-3-3--0--3-3-3--||------------------------------------------------------|
            -

-||---------------------------------------------------------------------------|
-||---------------------------------------------------------------------------|
-||---------------------------------------------------------------------------|
-||--9-9-9-9-9-9-9-9-9-9-9-9-9-9-----8-8-8-8-8-8-8-8-8-8-8-8--9-9-9-9-9-9-9-9-|
-||--7-7-7-7-7-7-7-7-7-7-7-7-7-7-777-7-7-7-7-7-7-7-7-7-7-7-7--7-7-7-7-7-7-7-7-|
-||--0-0-0-0-0-0-0-0-0-0-0-0-0-0-----0-0-0-0-0-0-0-0-0-0-0-0--0-0-0-0-0-0-0-0-|
                                 ---

------------------------------------------------------------------------------|
------------------------------------------------------------------------------|
------------------------------------------------------------------------------|
-9-9-9-9-9-9-----8-8-8-8-8-8-8------------------------------------------------|
-7-7-7-7-7-7-777-7-7-7-7-7-7-7---------------3--------------------------------|
-0-0-0-0-0-0-----0-0-0-0-0-0-0--0-0-0-0-0-0--1--------------------------------|
             ---                - - - - - -

-||-------------------------------------------------------||------------------|
-||-------------------------------------------------------||------------------|
-||-------------------------------------------------------||------------------|
-||-------------------------------------------------------||------------------|
-||-------------------------------------------------------||------------------|
-||--x/x/x/x/x/x/x/x-0---0---x/x/x/x/x/x/x/x/x/x--0--0----||------------------|
 *N.H- - - - - - - -         - - - - - - - - - -

-||---------------------------------------------------------------------------|
-||---------------------------------------------------------------------------|
-||---------------------------------------------------------------------------|
-||---------------------------------------------------------------------------|
-||--3-3-3-3-3-3-3-3--3--3----3-3-3-3-3-3-3-3--3--3----3-3-3-3-3-3-3-3--3--3--|
-||--0-0-0-0-0-0-0-0--0--0----0-0-0-0-0-0-0-0--0--0----0-0-0-0-0-0-0-0--0--0--|
     - - - - - - - -  -  -    - - - - - - - -  -  -    - - - - - - - -  -  -

--------------------------||--------------------------------------------------|
--------------------------||--------------------------------------------------|
--------------------------||--------------------------------------------------|
--------------------------||--------------------------------------------------|
--3-3-3-3-3-3-3-3--3--3---||--------------------------------------------------|
--0-0-0-0-0-0-0-0--1--1---||--------------------------------------------------|
  - - - - - - - -

-||-------------------------------------------------------||------------------|
-||-------------------------------------------------------||------------------|
-||-------------------------------------------------------||------------------|
-||-------------------------------------------------------||------------------|
-||-------------------------------------------------------||------------------|
-||--x/x/x/x/x/x/x/x-0---0---x/x/x/x/x/x/x/x/x/x--0--0----||------------------|
 *N.H- - - - - - - -         - - - - - - - - - -



------------------------------------------------------------------------------|
------------------------------------------------------------------------------|
------------------------------------------------------------------------------|
------------------------------------------------------------------------------|
------------------------------------------------------------------------------|
---x-x-x-x-x-x-x-x-x-x-x-x-x-x-x-x-x-x-x-x-x-x--------------------------------|
 N.H - - - - - - - - - - - - - - - - - - - - -


--||--------------------------------------------------------------------------|
--||--------------------------------------------------------------------------|
--||--------------------------------------------------------------------------|
--||--------------------------------------------------------------------------|
--||--2-2-2-2-2-----2-2-2-----3-3-3-3-3-----3-3-3-----2-2-2-2-2-----2-2-2-----|
--||--2-2-2-2-2--0--2-2-2--0--3-3-3-3-3--0--3-3-3--0--2-2-2-2-2--0--2-2-2--0--|
                 -         -             -         -             -         -

----------------------||------------------------------------------------------|
----------------------||------------------------------------------------------|
----------------------||------------------------------------------------------|
----------------------||------------------------------------------------------|
-3-3-3-3-3-----3-3-3--||------------------------------------------------------|
-3-3-3-3-3--0--3-3-3--||------------------------------------------------------|
            -




--------------------------------------------------------------x---------------|
--------------------------------------------------------------x---------------|
--------------------------------------------------------------x---------------|
----------------------------------5/7-7--7/5-5-5-5/7/5/4------x----------10---|
---2-2-2-2-2-----2--------------------------------------------x-----2-2-------|
---2-2-2-2-2--0--2--2-0-2-0--2/3--3/5-5--5/3-3-3-3/5/3/2--0------0--2-2---8---|
              -     - - - -                               -  A.H -

------0-----------------------------------------------------------------------|
------0-----------------------------------------------------------------------|
------0-----------------------------------------------------------------------|
-10---------------------------------------------------------------------------|
------------------------------------------------------------------------------|
--8------7h8p7-5--5h7-7---2-1-0-3-2-1-3-2-1-----------------------------------|
                          - - - - - - - - -

-||--------------------------------------------------------x------------------|
-||--------------------------------------------------------x------------------|
-||--------------------------------------------------------x------------------|
-||----------------------------5/7-7--7/5-5-5-5/7/5/4------x-----------10-----|
-||-2-2-2-----2--------------------------------------------x-----2-2----------|
-||-2-2-2--0--2--2-0-2-0--2/3--3/5-5--5/3-3-3-3/5/3/2--0------0--2-2----8-----|
           -     - - - -                               -  A.H -

------0--------------------------------------||-------------------------------|
------0--------------------------------------||-------------------------------|
------0--------------------------------------||-------------------------------|
-10------------------------------------------||-------------------------------|
---------------------------------------------||-------------------------------|
--8------7h8p7-5--5h7-7---2-1-0-3-2-1-3-2-1--||-------------------------------|
                          - - - - - - - - -


-||-------------------------------------------------------||------------------|
-||-------------------------------------------------------||------------------|
-||-------------------------------------------------------||------------------|
-||-------------------------------------------------------||------------------|
-||-------------------------------------------------------||------------------|
-||--x/x/x/x/x/x/x/x-0---0---x/x/x/x/x/x/x/x/x/x--0--0----||------------------|
 *N.H- - - - - - - -         - - - - - - - - - -

*Main Riff: Be carefull, the end of the riff is not always the same, pay attention and 
you will be able to play along with the song.

*N.H You gotta do your natural harmonics from the top of the neck (2nd fret) to the 
middle (7th to 10th fret)

Sorry if my comment aren't very clear but I'm French so I don't write very well in English...
Добавлено: 27.04.2012
Другие материалы по этой песне:
  • Аккорды и текст

Страница создана 27.04.2012
http://primanota.ru/gojira/of-blood-and-salt-chords.htm
Привет, Гость.
Предлагаем пройти революционный курс по гитаре.
Подарок от PrimaNota.Ru, забирай!