PrimaNota.ru - самый крупный в мире бесплатный архив песенных текстов, аккордов, табулатур и нот


Gojira - Worl To Come - таба, видео

Регистрация Запомнить меня
Войти через:  Facebook Google Twitter Vk Yandex Mail.ru

Gojira - Worl To Come - таба, видео

Печатать
Просмотров: 93
Author/Artist: Gojira
Title: World To Come
Album: From Mars To Sirius
Transcribed by: metallica44

A great song from an amazing band.

Guitar I
------------5-----------5-----------5-----------5-----------5-----------5----|
----5----7-----5-----7-----5-----7-----5-----7-----5-----7-----5-----7-----5-|
------6-----------6-----------6-----------6-----------6-----------6----------|
-----------------------------------------------------------------------------|
-----------------------------------------------------------------------------|
-----------------------------------------------------------------------------|

Guitar II (Joe)
-----------------------------------------------------------------------------|
-----------------------------------------------------------------------------|
------------------4--4---4--4b-----------------------------------------------|
-----4---4-4---------------------------------------7-7-7b-7b-----------------|
----------------------------------6----6-6-6-7-------------------------------|
-----------------------------------------------------------------------------|


-----------------------------------------------------------------------------|
-----------------------------------------------------------------------------|
------------------4--4---4--4b-----------------------------------------------|
------4--4-4---------------------------------------7-7-7-7-7-7-7-7--6--4-----|
----------------------------------6----6-6-6-7-------------------------------|
-----------------------------------------------------------------------------|


------------------------------------------------------------------------------|
------------------------------------------------------------------------------|
------------------------------------------------------------------------------|
------4--6--7--9-11--7--7-----4--7--6--6--4--2--4--4--------------------------|
------------------------------------------------------------------------------|
------------------------------------------------------------------------------|


-----------------------------------------------------------------------------|
-----------------------------------------------------------------------------|
------------------4--4---4--4b-----------------------------------------------|
-------4--4--4---------------------------------7-7-7b-7b---------------------|
---------------------------------6---6-6-6-7---------------------------------|
-----------------------------------------------------------------------------|


-----------------------------------------------------------------------------|
-----------------------------------------------------------------------------|
-----------------------------------------------------------------------------|
------------------4--4---4--4b----------------7-7-7-7-7-7-7-7---6--4---------|
-------4--4--4-------------------6---6-6-6-7---------------------------------|
-----------------------------------------------------------------------------|


-----------------------------------------------------------------------------|
-----------------------------------------------------------------------------|
-----------------------------------------------------------------------------|
-------4--6--7--9--11--9--7b-----4--7--6--6--4--2--4--4----------------------|
-----------------------------------------------------------------------------|
-----------------------------------------------------------------------------|


-----------------------------------------------------------------------------|
-----------------------------------------------------------------------------|
-----------------------------------------------------------------------------|
--------7--9--7--6--4--2--4--6--6--4v----------------------------------------|
-----------------------------------------------------------------------------|
-----------------------------------------------------------------------------|


-------------------------------------------------------------|
------------------4--4---4--4b-------------------------------|
--------4--4--4-------------------------------7-7-7-7-7-7-7--|
---------------------------------6---6-6-6-7-----------------|
-------------------------------------------------------------|


-----------------------------------------------------------------------------|
-----------------------------------------------------------------------------|
-----------------------------------------------------------------------------|
--------7--6--7--9--6-----7--6--7--6--4--6----7------------------------------|
--------7--6--7--9--6-----7--6--7--6--4--6----7------------------------------|
-----------------------------------------------------------------------------|


-----------------------------------------------------------------------------|
-----------------------------------------------------------------------------|
-----------------------------------------------------------------------------|
--------7--6--7--9--6-----7--6--7--6--4--6----7------------------------------|
--------7--6--7--9--6-----7--6--7--6--4--6----7------------------------------|
-----------------------------------------------------------------------------|
Добавлено: 10.07.2012
Другие материалы по этой песне:
  • Аккорды и текст

Страница создана 10.07.2012
http://primanota.ru/gojira/worl-to-come-chords.htm
Привет, Гость.
Предлагаем пройти революционный курс по гитаре.
Подарок от PrimaNota.Ru, забирай!