PrimaNota.ru - самый крупный в мире бесплатный архив песенных текстов, аккордов, табулатур и нот


Gojira - Flyng Whales - таба, видео

Регистрация Запомнить меня
Войти через:  Facebook Google Twitter Vk Yandex Mail.ru

Gojira - Flyng Whales - таба, видео

Печатать
Просмотров: 134
Уроки эстрадного вокала в Санкт-Петербурге
Author/Artist: Gojira
Title: Flying Whales
Album: From Mars To Sirius
Transcribed by: Jaymz88
DGCFAD


-----------------------------------------------------------------------------|
-----------------------------------------------------------------------------|
-----------------------------------------------------------------------------|
---------7------------------------------------7------------------------------|
-----7-------8------------------------7--------------------------------------|
-----------------10-----------------------8----------------------------------|

(A la fin)
-----------------------------------------------------------------------------|
-------------------------------10--------------------------------------------|
-------------------------9---------------------------------------------------|
---------7------------------10-----------------------------------------------|
-----7-------8---------------------------------------------------------------|
-----------------10----------------------------------------------------------|


Guitar II (Christian)
-----------------------------------------------------------------------------|
-----------------------------------------------------------------------------|
-10101010101010101010101010101010101010101010101010101010101010101010--------|
--x-x-x-x-x-x-x-x-x-x-x-x-x-x-x-x-x-x-x-x-x-x-x-x-x-x-x-x-x-x-x-x-x-x--------|
--8-8-8-8-8-8-8-8-8-8-8-8-8-8-8-8-8-8-8-8-8-8-8-8-8-8-8-8-8-8-8-8-8-8--------|
-----------------------------------------------------------------------------|

Guitar I (Joe)
-----------------------------------------------------------------------------|
-----------------------------------------------------------------------------|
-----------------------------------------------------------------------------|
--7/3-----3-------3--3-------3--3--3/6------7/3-----3-------3--3-------3--3--|
--x-x-----x-------x--x-------x--x--x-x------x-x-----x-------x--x-------x--x--|
--5/1--0--1--0-0--1--1--0-0--1--1--1/4------5/1--0--1--0-0--1--1--0-0--1--1--|
       -     ---        ---                      -     ---        ---

---------------------|-------------------------------------------------------|
---------------------|-------------------------------------------------------|
---------------------|-------------------------------------------------------|
------3--3--3--3/6---|-------------------------------------------------------|
------x--x--x--x-x---|-------------------------------------------------------|
-0-0--1--1--1--1/4---|-------------------------------------------------------|
 ---

------------------------------------------------------------------------------|
------------------------------------------------------------------------------|
------------------------------------------------------------------------------|
--3--2--------------3-2---------------3-2---------------3-2-------------------|
--x--2--2222222222--x-2---2222222222--x-2---2222222222--x-2--2222222222-------|
--1--0--0000000000--1-0---0000000000--1-0---0000000000--1-0--0000000000-------|
       PM---------      PM----------      PM----------       -----------------|

-----------------------------------------------------------------------------|
-----------------------------------------------------------------------------|
-----------------------------------------------------------------------------|
--7/3-----3-------3--3-------3--3--3/6------7/3-----3-------3--3-------3--3--|
--x-x-----x-------x--x-------x--x--x-x------x-x-----x-------x--x-------x--x--|
--5/1--0--1--0-0--1--1--0-0--1--1--1/4------5/1--0--1--0-0--1--1--0-0--1--1--|
       -     ---        ---                      -     ---        ---

---------------------|-------------------------------------------------------|
---------------------|-------------------------------------------------------|
---------------------|-------------------------------------------------------|
------3--3--3--3/6---|-------------------------------------------------------|
------x--x--x--x-x---|-------------------------------------------------------|
-0-0--1--1--1--1/4---|-------------------------------------------------------|
 ---

------------------------------------------------------------------------------|
------------------------------------------------------------------------------|
------------------------------------------------------------------------------|
--3--2--------------3-2---------------3-2---------------3-2-------------------|
--x--2--2222222222--x-2---2222222222--x-2---2222222222--x-2--2222222222-------|
--1--0--0000000000--1-0---0000000000--1-0---0000000000--1-0--0000000000-------|
       PM---------      PM----------      PM----------       -----------------|

------------------------------|-----------------------------------------------|
------------------------------|-----------------------------------------------|
------------------------------|-----------------------------------------------|
------------------------------|-----------------------------------------------|
-777777-66-55-44-33-22-11-----|-----------------------------------------------|
------------------------------|-----------------------------------------------|
 PM---------------------------------------------------------------------------|

-----------------------------------------------------------------------------|
-----------------------------------------------------------------------------|
-----------------------------------------------------------------------------|
---2---7---3------------10--9-10---------2---7---3-------10--9-10------------|
---2---x---x-------------x--x--x---------2---x---x--------x--x--x------------|
---0---5---1----10b------8--7--8---------0---5---1--------8--7--8------------|


--------------------------------------------------------------------0--------|
--------------------------------------------------------------------0--------|
--------------------------------------------------------------------0--------|
---2---7---3------------10--9-10---------2---7---3--------------7---0--------|
---2---x---x-------------x--x--x---------2---x---x--------8--7--5------------|
---0---5---1----10b------8--7--8---------0---5---1--------8--7--5------------|
                                                         -----

-----------------------------------------------------------------------------|
-----------------------------------------------------------------------------|
-----------------------------------------------------------------------------|
-------------------------------------------------6-5-------------------------|
--11-22-33-22-11-22-33---------11-22-33-22-11-22-4-3------11-22-33-22-11-22--|
--11-22-33-22-11-22-33---1-1---11-22-33-22-11-22-4-3------11-22-33-22-11-22--|
 PM-------------------   - -   -----------------------    -------------------|

------------------------------------|-------3---------2-----------------------|
------------------------------------|-----3---------2-------------------------|
------------------------------------|---3---------2---------------------------|
------------------------------6--5--|-3---------2-----------------------------|
-33---------11-22-33-22-11-22-4--3--|-----------------------------------------|
-33---1-1---11-22-33-22-11-22-4--3--|-----------------------------------------|
 -----------------------------------------------------------------------------|

------------------------------------------------------------------|-----------|
-----------------------------------------------------------3-6----|-----------|
-----------------------------------------------------------3-6----|-----------|
-----------------------------------------------------6--5---------|--6----5---|
--------11-22-33-22-11-22-33-------11-22-33-22-11-22-4--3---------|--x----x---|
-1-1-1--11-22-33-22-11-22-33--1-1--11-22-33-22-11-22-4--3---------|--4----3---|
 -----------------------------------------------------------------------------|

------------------------------------------------------------------------------|
------------------------------------------------------------------------------|
------------------------------------------------------------------------------|
--------5------5------5-----5--3-----3-----3-----3-----------5-------5------5-|
------5------5------5-----5------3-----3-----3-----3-------5-------5------5---|
----3------3------3-----3----------1-----1-----1------1--3------3-------3-----|


-------------------------------------|---------------------------------------|
-------------------------------------|---------------------------------------|
-------------------------------------|---------------------------------------|
-----5--3------3------6-6/5-----x3---|----6-5----6-5----6-5-----6-5---6-5----|
---5------3------3-------------------|---------------------------------------|
-3----------1-------1----------------|--4------4------4------4------4-----4--|


------|----x/----------------------x/--------------------x/-----|-------------|
------|----x/----------------------x/--------------------x/-----|-------------|
------|----x/----------------------x/--------------------x/-----|-------------|
--6-5-|----x/---------------6/-5---x/--------------6/-5--x/-----|-------------|
------|----x/---0--1--0--1--x--x---x/--0--1--0--1--x--x--x/-----|-------------|
------|---------0--1--0--1--4/-3-------0--1--0--1--4/-3---------|-------------|
          A.H  PM---------        A.H  ---------------------------------------|       A.H

-----------------------------------------------------|------------------------|
-----------------------------------------------------|------------------------|
-----------------------------------------------------|------------------------|
-------------6/5--6/5--6/5--6/5--6/5--6/5--6/5--6/5--|------------------------|
-0--1--0--1--x-x--x-x--x-x--x-x--x-x--x-x--x-x--x-x--|------------------------|
-0--1--0--1--4/3--4/3--4/3--4/3--4/3--4/3--4/3--4/3--|------------------------|
 -----------------------------------------------------------------------------|


------------------------------------------------------------------------------|
------------------------------------------------------------------------------|
------------------------------------------------------------------------------|
--3--2--------------3-2---------------3-2---------------3-2-------------------|
--x--2--2222222222--x-2---2222222222--x-2---2222222222--x-2--2222222222-------|
--1--0--0000000000--1-0---0000000000--1-0---0000000000--1-0--0000000000-------|
       PM---------      PM----------      PM----------       -----------------|


-----------------------------------------------------------------------------|
-----------------------------------------------------------------------------|
-----------------------------------------------------------------------------|
--7/3-----3-------3--3-------3--3--3/6------7/3-----3-------3--3-------3--3--|
--x-x-----x-------x--x-------x--x--x-x------x-x-----x-------x--x-------x--x--|
--5/1--0--1--0-0--1--1--0-0--1--1--1/4------5/1--0--1--0-0--1--1--0-0--1--1--|
       -     ---        ---                      -     ---        ---

-----------------------------------------------------------------------------|
-----------------------------------------------------------------------------|
-----------------------------------------------------------------------------|
------3--3--3--3/6-----------------------------------------------------------|
------x--x--x--x-x-----------------------------------------------------------|
-0-0--1--1--1--1/4-----------------------------------------------------------|
 ---
Добавлено: 15.06.2012
Другие материалы по этой песне:
  • Аккорды и текст

Страница создана 15.06.2012
http://primanota.ru/gojira/flyng-whales-chords.htm
Привет, Гость.
Предлагаем пройти революционный курс по гитаре.
Подарок от PrimaNota.Ru, забирай!