PrimaNota.ru - самый крупный в мире бесплатный архив песенных текстов, аккордов, табулатур и нот


Gallows - Chains - таба, видео

Регистрация Запомнить меня
Войти через:  Facebook Google Twitter Vk Yandex Mail.ru

Gallows - Chains - таба, видео

Печатать
Просмотров: 321
Новый альбом группы 'Черный Кузнец' по культовому сериалу 'Сверхъестественное'!
-------------------------------------------------------------------------------
                             CHAINS - Gallows
-------------------------------------------------------------------------------
Tabbed by: Dr Sin
E-mail: drsin13@hotmail.co.uk

Full cover here - https://www.youtube.com/watch?v=CfNLT-Iibx8

Tuning: Drop C#

INTRO:

|--------1----------0-----------0---------3---------|
|------3----------3-----------2---------------------|
|---------------------------------------2-----------| X4
|-------------------------3-----------5-------------|
|----0---------0---------1----------4---------------|
|--0---------0--------------------------------------|

CHORUS: (Don?t need no violent summer...)

|-11111111-00000000----------33333333--|
|-33333333-33333333-22222222-22222222--|
|-22222222-22222222-33333333-22222222--|
|-00000000-00000000-33333333-55555555--| X4
|-00000000-00000000-11111111-44444444--| 
|-00000000-00000000--------------------|

VERSE: (Shit rock 'n roll?)

|----------------------------------------|
|----------------------------------------|
|----------------------------------------|
|----------------------------------------| X4
|-00000000-00-0000-00000000-?------------| 
|-00000000-00-0000-00000000-11111111-888-|
                            (eleven)

MELLOW BRIDGE:

|--1------0------------3----|
|---------------2-----------|
|---------?-----------------| X4
|--0------0-------?----4----|
|---------------1-----------|
|---------------------------|

SEXY GROOVY BRIDGE:

|----------------------------------------------------------------|
|----------------------------------------------------------------|
|------2-----2-----2-------2-----------3-----3----2-----2------2-|
|--0-3---0-3---0-3---3-0-3---3-0-3-0-3---0-3--0-3-----2----0-2---| X3
|---------------------------------------------------4------------|
|----------------------------------------------------------------|

|----------------------------------------------------------------|
|----------------------------------------------------------------|
|------2-----2-----2-------2-----------3-----3----2--------------|
|--0-3---0-3---0-3---3-0-3---3-0-3-0-3---0-3--0-3----4444-111----| 
|----------------------------------------------------------------|
|----------------------------------------------------------------|


OUTRO:

|------------------|
|------------------|
|------------------|
|------------------| X8
|-00000000-00-0000-| 
|-00000000-00-0000-|


************************************

| /   slide up
| \   slide down
| x   Mute note

************************************

Добавлено: 01.08.2014
Другие материалы по этой песне:
  • Аккорды и текст

Страница создана 01.08.2014
http://primanota.ru/gallows/chains-chords.htm
Привет, Гость.
Предлагаем пройти революционный курс по гитаре.
Подарок от PrimaNota.Ru, забирай!