PrimaNota.ru - самый крупный в мире бесплатный архив песенных текстов, аккордов, табулатур и нот


Gallows - Leviathan Rot - таба, видео

Регистрация Запомнить меня
Войти через:  Facebook Google Twitter Vk Yandex Mail.ru

Gallows - Leviathan Rot - таба, видео

Печатать
Просмотров: 61
-------------------------------------------------------------------------------
               Leviathan Rot [Main Riff] (1:27-End) - Gallows
-------------------------------------------------------------------------------
Tabbed by: Jason Walsh
E-mail: jasonswalsh@hotmail.com

Tuning: Drop C#

The beginning of the song has nothing much to it and is pretty simple to 
learn but i'll tab the rest of it out if requested! Really wanted to learn this
riff and saw there were no tabs out for it yet! had to be done!

D#|------------------------------------------------------------------------|
A#|------------------------------------------------------------------------|
F#|------------------------------------------------------------------------|
C#|-4-4-4-0--4---------------------4-4-4-0---4---------------------4-4-4-0-|
G#|-4-4-4-0----3-----4-----6-----2-4-4-4-0-----3-----4-----6---2---4-4-4-0-|
C#|-4-4-4-0------0-3---3-5---0-1---4-4-4-0-------0-3---3-5---1---1-4-4-4-0-|

D#|------------------------------------------------------------------------|
A#|------------------------------------------------------------------------|
F#|------------------------------------------------------------------------|
C#|---4---------------------4-4-4-0--8-8-8-8-7-7-7-0-13-13-13-0-4-4-4-0----|
G#|-----3-----4-----6-----2-4-4-4-0--8-8-8-8-7-7-7-0-13-13-13-0-4-4-4-0----|
C#|-------0-3---3-5---0-1---4-4-4-0--8-8-8-8-7-7-7-0-13-13-13-0-4-4-4-0----|

And repeat until end!

Thanks for checking out my tab!
Jason Walsh
Добавлено: 02.12.2015
Другие материалы по этой песне:
  • Аккорды и текст

Страница создана 02.12.2015
http://primanota.ru/gallows/leviathan-rot-chords.htm
Привет, Гость.
Предлагаем пройти революционный курс по гитаре.
Подарок от PrimaNota.Ru, забирай!