PrimaNota.ru - самый крупный в мире бесплатный архив песенных текстов, аккордов, табулатур и нот


Gallows - Outsider Art - таба, видео

Регистрация Запомнить меня
Войти через:  Facebook Google Twitter Vk Yandex Mail.ru

Gallows - Outsider Art - таба, видео

Печатать
Просмотров: 187
Уроки эстрадного вокала в Санкт-Петербурге
---------------------------------------------------------------------------
                          OUTSIDER ART - Gallows
---------------------------------------------------------------------------

Tuning: C#,Ab,C#,F#,Bb,Eb or Db,G#,Db,Gb,A#,D#.

Cover video at https://www.youtube.com/watch?v=BbcQAWdIZzQ

INTRO+VERSE:

eb|-----------------------------------------------------------------------|
Bb|-----------------------------------------------------------------------|
F#|-----------------------------------------------------------------------|
C#|--5555555555555555-888888888-33333333----------------------------------|
Ab|--5555555555555555-888888888-33333333--X-LOADS-------------------------|
C#|--5555555555555555-888888888-33333333----------------------------------|

CHORUS:

eb|-----------------------------------------------------------------------|
Bb|-----------------------------------------------------------------------|
F#|-----------------------------------------------------------------------|
C#|--5555555555555555-333333333-888888888---------------------------------|
Ab|--5555555555555555-333333333-888888888-X-LOADS-------------------------|
C#|--5555555555555555-333333333-888888888---------------------------------|

BRIDGE:

eb|-----------------------------------------------------------------------|
Bb|-----------------------------------------------------------------------|
F#|-----------------------------------------------------------------------|
C#|-5-58-54-4-4-1-0-6~---5-58-54-4-4-1-0-3~------5--5555555---------------|
Ab|-5-58-54-4-4-1-0-6~---5-58-54-4-4-1-0-3~--X2--5--5555555-Until break---|
C#|-5-58-54-4-4-1-0-6~---5-58-54-4-4-1-0-3~------5--5555555---------------|

CHORUS:

eb|-----------------------------------------------------------------------|
Bb|-----------------------------------------------------------------------|
F#|-----------------------------------------------------------------------|
C#|--5555555555555555-333333333-888888888---------------------------------|
Ab|--5555555555555555-333333333-888888888-X-Until nearly the end of the---|
C#|--5555555555555555-333333333-888888888-------------song----------------|

SOLO:

eb|-----------------------------------------------------------------------|
Bb|-8---------------------------------------------------------------------|
F#|-10b12-(Bend slowly upward, then back again to create the siren effect)|
C#|-----------------------------------------------------------------------|
Ab|----------------------------------X2-----------------------------------|
C#|-----------------------------------------------------------------------|

eb|-----------------------------------------------------------------------|
Bb|-8-----X4-10----X2-11----X4-13----X2-13----X4--------------------------|
F#|-10b12----12b14----13b15----15b17----15b17----17-15----15---15-17------|
C#|----------------------------------------------------17----17-----------|
Ab|-----------------------------------------------------------------------|
C#|-----------------------------------------------------------------------|


eb|------------------13-13-13-13--|---------------------------------------|
Bb|-13----X4---------13-13-13-13--|---------------------------------------|
F#|-15b17----17-15----------------|---------------------------------------|
C#|----------------17-------------|-5-58-54~------------------------------|
Ab|-------------------------------|-5-58-54~------------------------------|
C#|-------------------------------|-5-58-54~------------------------------|

Добавлено: 15.11.2013
Другие материалы по этой песне:
  • Аккорды и текст

Страница создана 15.11.2013
http://primanota.ru/gallows/outsider-art-chords.htm
Привет, Гость.
Предлагаем пройти революционный курс по гитаре.
Подарок от PrimaNota.Ru, забирай!