PrimaNota.ru - самый крупный в мире бесплатный архив песенных текстов, аккордов, табулатур и нот


Gallagher, Rory - Bratcha Dubha - таба, видео

Регистрация Запомнить меня
Войти через:  Facebook Google Twitter Vk Yandex Mail.ru

Gallagher, Rory - Bratcha Dubha - таба, видео

Печатать
Просмотров: 170
Уроки эстрадного вокала в Санкт-Петербурге
-------------------------------------------------------------------------------
                             Bratcha Dubha - Rory Gallagher
-------------------------------------------------------------------------------
Tabbed by: Phizzo
E-mail: phizzie@hotmail.de

Tuning: Standard

-------------------------------------------------------------------------------
Notes: I listened to this song. I loved it. I wanted to play on guitar. 
I spend a night figuring it out.

This is my own interpretation of the song. I also have also partly added asecond guitar, 
if you wanna play it with a friend.

Please click this link, if you want to support me: http://j.gs/1TC6 ! Only 5s of your time
-------------------------------------------------------------------------------
Time signature: 3/4
Chords:

D  xx0232
A  x02220
Bm x24432
F# 244322
E  022000
Aadd6,5  02223

Part 1: D-A-Bm-F#-Bm-A-D-D 
Part 2: Em-Em-A-D-Em-Em-D-D-Em-Em-A-A-Aadd6,5

Part 1
1st Guitar
   D        A       Bm      F#      Bm      A       D
e|-2-0----------------------------------------------2---2-2--2--------------|
B|-3---3----2-3-5---3-2-------0-2---3-2-----2-3-5---3-----3-----------------|
G|------------------4---4---3-------4---4-------------0-----0---------------| x2
D|-0------------------------------------------------0-----0-----------------|
A|----------0-------2---------------2-------0-------------------------------|
E|--------------------------2-----------------------------------------------|

2nd Guitar
e|-5-3-2---0-2-3---2-0----------------2-------0-------------------------------|
B|-3-3-3---------------3----2-3-5---3---3---2---2---3-------------------------|
G|----------------------------------4-------2-------2-------------------------|
D|-0-0-0---0----------------------------------------0-------------------------| x2
A|-----------------2----------------2-------0---------------------------------|
E|--------------------------2-------------------------------------------------|



Part 2
e|-0---2--3-2-0-----------------2---3---5---7---3---5-3-2---2-3--2-0----------------------3---3-3|
B|---0-------------2-3-5----3-----------------------------------------3-0--------2--------2---2-2|
G|----------------------------2-------0-------0--------------------------------2-----------------|
D|--------------------------------------------------0------------------------2--------2---0---0-0|
A|-----------------0--------0----------------------------------------------0--------0------------|
E|-0------0-------------------------0---0---0---0------------------------------------------------|


Please click this link, if you want to support me: http://j.gs/1TC6 ! Only 5s of your time
************************************

| /   slide up
| \   slide down
| h   hammer-on
| p   pull-off
| ~   vibrato
| +   harmonic
| x   Mute note
| b   Bend
| pb  Pre-bend
| br  Bend release
| pbr Pre-bend release
| brb Bend release bend

************************************

Please click this link, if you want to support me: http://j.gs/1TC6 ! Only 5s of your time
Добавлено: 09.07.2013
Другие материалы по этой песне:
  • Аккорды и текст

Страница создана 09.07.2013
http://primanota.ru/gallagher-rory/bratcha-dubha-chords.htm
Привет, Гость.
Предлагаем пройти революционный курс по гитаре.
Подарок от PrimaNota.Ru, забирай!