PrimaNota.ru - самый крупный в мире бесплатный архив песенных текстов, аккордов, табулатур и нот


Gallagher, Rory - Edge In Blue - таба, видео

Регистрация Запомнить меня
Войти через:  Facebook Google Twitter Vk Yandex Mail.ru

Gallagher, Rory - Edge In Blue - таба, видео

Печатать
Просмотров: 94
As recorded by Rory Gallagher
(From the 1976 Album CALLING CARD)


Transcribed by Tone Jone's Updated 4-12-10

 Words and Music by Rory Gallagher

 

A
x 0 2 2 2 0 E
0 2 2 1 0 0 F#m
2 4 4 2 2 2 D
x x 0 2 3 2 
G
3 2 0 0 3 3 C#m
x 4 6 6 5 4 AV
5 7 7 6 5 5 Bm
x 2 4 4 3 2 
E/D
x x 0 1 0 0 E/C#
x 4 2 1 0 0 E/B
x 2 2 1 0 0 


Gtr I (E A D G B E) - 'Electric Guitar w/clean tone'
Gtr II (E A D G B E) - 'Overdriven Guitar w/sustain Fender Strat'
Gtr III (E A D G B E) - 'Acoustic Gtr. Steel'


 Intro
  E=124
                     A          E
 6/8
  Gtr I
  Q.   E S S  E    E Q  E E E   Q  E E S S E
|----------------|------------|--------------|
|------------(2)-|------------|--------------|
|--------2----2--|---2--x---2-|-1------------|
|--------2h4--2--|---2--x---2-|-2--x-----2-4-|
|----------------|-2h4--x-4---|----x-2s4-----|
|----------------|------------|----x---------|


  F#m           A
                      |3-| |-3-| |-3-|
   Q.   E e e   Q.   +E  S S S S S S S
|-------------|-------------------------|
|-------------|------------3p2---3p2----|
|-^2----x-----|------------2-----2------|
|-^4----x-----|------------2-----2------|
|-^4----x-----|-0----(0)-0-----0-----0--|
|-^2----x-2-4-|-------------------------|


  A                          E
   Q.           e  E  S  S    Q.         E  E E
|--------------------------|--0----------0------------|
|--2----------^-2----------|--0-------------0---------|
|--2----------^-2-----2----|--1---------------1-------|
|--2----------^-2-----4p=2-|--2-----------------------|
|--0----------^-0----------|--------------------------|
|--------------------------|--------------------------|
|
| Gtr II
|     ~~                            ~~
|                                             |--3--|
|  S  S  +Q    +E  E  S  S    S  S  Q   +E  E S  S  S
|--------------------------|--------------------------|
|-15s17-(17)--(17)---------|--------------------------|
|--------------------19s18-|-16h18p16--(16)-----18p16-|
|--------------------------|--------------------------|
|--------------------------|--------------------------|
|--------------------------|--------------------------|


  F#m                       A
   q.    e E      E           Q   +E  E E e
|-------------------------|-----------------|
|--2----^2----------------|-----------------|
|--2----^2----------------|-------------2-2-|
|--4----^4----------------|-----------2h4-4-|
|-------------------------|---0---(0)-------|
|-------------------------|-----------------|
|
|  Q.    E S  +E     S       +Q.      Q.
|-------------------------|-----------------|
|-------------------------|-----------------|
|-18---------(18)---18b20r|=(18)------------|
|-------------------------|-----------------|
|-------------------------|-----------------|
|-------------------------|-----------------|


  A                                 E
                                                     |3|
   Q         +E       E   E  e       Q.           E  E S  e
|---------------------------------|----------------------------|
|---------------------------------|----------------------------|
|--2---------(2)----------2--2----|-------------^-1------------|
|--2---------(2)------2h==4--2----|--2----------^-2----2--4----|
|--0---------(0)------------------|--2----------^-2--4---------|
|---------------------------------|--0----------^-0------------|
|
|  ~~~~~~~~~~
|  S     +Q       +E    S E  S  S    S  S  +Q    +E  E    S  S
|---------------------------------|----------------------------|
|---------------------------------|----------------------------|
|-16b18-(16)-----(16)-------14s13-|-------------------------14-|
|---------------------------------|-16p14-(14)--(14)-----16----|
|---------------------------------|----------------------------|
|---------------------------------|----------------------------|


  F#m                                        A
                                                   |3-|       |3-|
   Q.              e    E         E            E  +E  S E S  +E  S E S
|------------------------------------------|---------------------------|
|------------------2-----------------------|-----------------------2h3-|
|------------------2-----------------------|------------2h4--(4)---2h4-|
|--4---------------4-----------------------|---------------------------|
|------------------------------------------|---0--(0)-0----------0-----|
|-----------------------2---------4--------|---------------------------|
|
|        ~~~~~                        ~~~~~~~~~~~~
|  E     S     +Q    S  S  T  T  +S   S       +Q.         Q.
|------------------------------------------|---------------------------|
|----------------------14h15p14-(14)-------|---------------------------|
|-16b18r16b18-(16)-------------------16b18-|-(16)----------------------|
|------------------------------------------|---------------------------|
|------------------------------------------|---------------------------|
|------------------------------------------|---------------------------|


  A                    E                  F#m
   Q   E   E  E E       Q.     e   E  E    Q.   e  E  E
|--------------------|------------------|------------------|
|----------2h=3-2----|------------------|-------2----------|
|----------2h=4-2----|-------^-1--------|-------2----------|
|--2---2-------------|--2----^-2------2-|--4----4----------|
|--0---0-------------|--2----^-2---4----|------------------|
|--------------------|--0----^-0--------|----------2--4----|
|
|  Q.     +Q    S  S    Q.    +E   E  E    Q.   E  e  e
|--------------------|------------------|------------------|
|--------------------|------------------|------------------|
|--------------------|------------------|-14------16-16b18-|
|-14-----(14)-----16-|-14----(14)-14h16-|------------------|
|--------------------|------------------|------------------|
|--------------------|------------------|------------------|


      A              D                          G
   E  E E  E  E  E    E  E   E      E E  E       E  E E     E E  E
|------------------|----------------2---------|-------------3------------|
|-----2-2--2--3--5-|---------3--------3-------|-------3-------3----------|
|-----2-2----------|-----2---------------2----|-----0------------0-------|
|-----2-2----------|--0-----------------------|--0-----------------------|
|--0---------------|--------------------------|--2-----------------------|
|------------------|--------------------------|--3-----------------------|
|
|                                   ~~              ~~      ~~
|                                                                |--3--|
|  Q.      E  E  E    E  E  +S   S  Q    S  s    E  E S  S  Q    S  S  S
|------------------|--------------------------|--------------------------|
|------------------|--------------------------|--------------------------|
|------------11-12-|-12p11-(11)---------------|-14h16---14-12---14h16p14-|
|-14------14-------|------------14-12---14p12-|--------------------------|
|------------------|--------------------------|--------------------------|
|------------------|--------------------------|--------------------------|


  A
   E              E  E   Q     E
|------------------------0---------------|
|--------------------2-------------------|
|-----------------2------------2---------|
|----------------------------------------|
|--0-------------------------------------|
|----------------------------------------|
|
|         ~~~~~~~~~~~~~~~~~~
|  S     +S      +Q     +E  E  S     +S
|----------------------------------------|
|----------------------------------------|
|-12b14r(12)b14-(12)---(12)---12b14r(12)-|
|----------------------------------------|
|----------------------------------------|
|----------------------------------------|


  D
   E    E E  E E E   E            E         E E E E
|------------3-----|--------------------------2-----|
|--------------2---|------------------------3---3---|
|---------2------2-|--------------2---------------2-|
|-------2----------|-0------------------------------|
|--0---------------|--------------------------------|
|------------------|--------------------------------|
|
|  ~~~~~
|  Q      Q.     E   S    +S     +S     +S  Q   Q
|------------------|--------------------------------|
|------------------|--------------------------------|
|-12b14------------|-9b11r(9)b11r(9)b11r(9)---------|
|------------------|------------------------7-------|
|------------------|--------------------------------|
|------------------|--------------------------------|


  G
   E              E           E   E        E    E
|---------------------------------3---------------|
|-----------------------------3------------3------|
|-----------------0-----------------------------0-|
|--0----------------------------------------------|
|--2----------------------------------------------|
|--3----------------------------------------------|
|
|  S     +S      +S      +S   E  +S   +S   S S  E
|-------------------------------------------------|
|-------------------------------------------------|
|-14b16r(14)b16r(14)b16r(14)-------------------14-|
|----------------------------12-(12)-(12)/--------|
|-------------------------------------------------|
|-------------------------------------------------|


  A                                                   E
   E        E        E     E       E        E          H.
|--------------------------0------------------------|--------||
|----------------------------------2----------------|--------||
|--------------------2----------------------2-------|--1-----||
|-----------2---------------------------------------|--2-----||
|--0------------------------------------------------|--2-----||
|---------------------------------------------------|--0-----||
|
|                                        ~~            ~~~
|  |--3--|  |--3--|           |---3---|     |--3--|
|  S  S  S  S  S  S  E     S  S  S    S  S  S  S  S    H.
|---------------------------------------------------|--------||
|-17p14----17p14----17b19-17-15p14------------------|-17-----||
|-------14-------14------------------16-14-16p14----|--------||
|------------------------------------------------16-|--------||
|---------------------------------------------------|--------||
|---------------------------------------------------|--------||


 Drum Cue
  Double Time E=248
                                         A       A
 4/4
                                 Gtr I
  E S S E S S E S S E S S   H    E E +S   E.     H    S E E +S  E
|-x-x-x-x-x-x-x-x-x-x-x-x-|------------------||-------------------|
|-------------------------|--------------(2)-||o-2----------------|
|-------------------------|--------2-(2)--2--||--2----------------|
|-------------------------|------2h4-(4)--2--||--2--------2-(2)-2-|
|-------------------------|------------------||o--------2h4-(4)-2-|
|-------------------------|------------------||-------------------|


                                         1.                     2.
  E                      F#m                               A
  Q  S E E  E  +S  E E   H    +E  E E E   +H     E E E +S  S     +W
|----------------------|----------------|---------------------||--------||
|----------------------|----------------|------------------2-o||-(2)----||
|-1--------(2)---------|----------------|------------2-(2)-2--||--------||
|-2------2h=4--(4)-2h4-|-4----(4)-------|----------2h4-(4)-2--||--------||
|-2--------------------|-4----(4)-----0-|-(0)----0-----------o||--------||
|-0--------------------|-2----(2)-2-4---|---------------------||--------||


   Verse
    $
    D                 G                 A
    Gtr III
     Q  E E E E E E   E E E E E E E E   Q  E E E E E E
     |  | | | | | |   | | | | | | | |   |  | | | | | |
     /  / / / / / /   / / / / / / / /   /  / / / / / /

    Gtrs I, II
     Q  E E E E E E   E E E E E E E E   Q  E E E E E E
||--^2--2-2-2-2-2-2-|-3-3-3-3-3-3-3-3-|----------------|
||o-^3--3-3-3-3-3-3-|-3-3-3-3-3-3-3-3-|----7p5-7p5-----|
||--^2--2-2-2-2-2-2-|-0-0-0-0-0-0-2-0-|----7p6-7p6-----|
||--^0--0-0-0-0-0-0-|-0-0-0-0-0-0-2-0-|-7----------7-7-|
||o-----------------|-2---2---2---2---|-0--------------|
||------------------|-3---3---3---3---|----------------|


                        D                G
  E E E E E E  E   E    Q  E E E E E E   E E E E E E E E
  | | | | | |  |   |    |  | | | | | |   | | | | | | | |
  / / / / / /  /   /    /  / / / / / /   / / / / / / / /

  E E E E E E  E   E    Q  E E E E E E   E E E E E E E E
|---------------------|-2--2-2-2-2-2-2-|-3-3-3-3-3-3-3-3-|
|-----7p5-7p5---------|-3--3-3-3-3-3-3-|-3-3-3-3-3-3-3-3-|
|---6-7p6-7p6---------|-2--2-2-2-2-2-2-|-0-0-0-0-0-0-0-0-|
|-7-7-------------(0)-|-0--0-0-0-0-0-0-|-0-0-0-0-0-0-0-0-|
|-0-----------(0)-----|----------------|-2---2---2---2---|
|---------------------|----------------|-3---3---3---3---|


                                  To Coda
  A                   E
  Gtr I
  Q  E E E E E  E     H      +E E +S  E.
  |  | | | | |  |     |       | |  |  |
  /  / / / / /  /     /       / /  /  /

  Gtr II
  Q  E E E E E.   S   E q  E  E E +S  E.
|-------------------|--------------------||
|----7p5-7p5--------|---9----------------||
|----7p6-7p6--------|-----------2-(2)----||
|-7---------------6s|=9---------4-(4)-2--||
|-0-----------------|--------------------||
|-------------------|--------------------||


 Chorus
  A
  E E          E          E   E   E     +S E.
  | |          |          |   |   |      | |
  / /          /          /   /   /      / /

  E S   +S    +S    +S    S E   E   +E     E.
|---------------------------------------------|
|---5-----------------------------------------|
|---4b6r(4)b6r(4)b6r(4)b6---------------------|
|------------------------------------------2--|
|-0-------------------------2s==4---(4)-------|
|---------------------------------------------|


  E                                                      F#m         A
  Gtr I
  E  E              E             E   E     E  +S E.     E E E E E E +S E.
  |  |              |             |   |     |   | |      | | | | | |  | |
  /  /              /             /   /     /   / /      / / / / / /  / /

  E  S     +S      +S      +S     S E   +S  E.    E  S   E E E E E E  E    E
|------------------------------------------------------|---------2-----------|
|---12-------------------------------------------------|-------2-------------|
|---11b13r(11)b13r(11)b13r(11)b13----------------------|-----2---------------|
|-----------------------------------4---(4)-2----------|---4-----------------|
|------------------------------------------------------|-------------------0-|
|-0----------------------------------------------------|-2---------2--4------|


  A
   E  E E E E E +S  E.   E E          E          E E E +S  E.
   |  | | | | |  |  |    | |          |          | | |  |  |
   /  / / / / /  /  /    / /          /          / / /  /  /

  +Q    Q   E E +S  E.   E S   +S    +S    +S    E E E +S  E.
|----------------------|--------------------------------------|
|----------------------|---5----------------------------------|
|-------2--------------|---4b6r(4)b6r(4)b6r(4)b6--------------|
|-----------2s4-(4)-2--|---------------------------2s4-(4)-2--|
|-(0)------------------|-0------------------------------------|
|----------------------|--------------------------------------|


  E
  E  E      E               E       E   E +S  E.
  |  |      |               |       |   |  |  |
  /  /      /               /       /   /  /  /

  E  E     +S      +S      +S     E   S E +S  E.
|------------------------------------------------|
|---12-------------------------------------------|
|---11b13r(11)b13r(11)b13r(11)b13----------------|
|---------------------------------------4-(4)-2--|
|------------------------------------------------|
|-0----------------------------------------------|


                       1.                2.
  F#m            A
  E E E E E E +S E.      W                 W
  | | | | | |  | |
  / / / / / /  / /

  E E E E E E  E    E   +Q    H    q      +Q   Q  E E  Q
|---------2-----------|----------------||------------------||
|-------2-------------|---------------o||------2--2-2-(0)--||
|-----2---------------|------^2----2---||------2--2-2-(0)--||
|---4-----------------|------^2----2---||------2--2-2-(0)--||
|-------------------0-|-(0)--^0----0--o||-(0)--------------||
|-2---------2--4------|----------------||------------------||


   Bridge
    C#m          AV                     C#m            AV
    Gtrs I, II
     Q  Q  E E E E   +Q   E. S E E q     Q  E. S E E E E
||--^4--4--4-4-4-5-|-(5)--5--5-5-5-5--|-^4--4--4-4-4-4-5-|
||o-^5--5--5-5-5-5-|-(5)--5--5-5-5-5--|-^5--5--5-5-6-6-5-|
||--^6--6--6-6-6-6-|-(6)--6--6-6-6-6--|-^6--6--6-6-6-6-6-|
||--^6--6--6-6-6-7-|-(7)--7--7-7-7-7--|-^6--6--6-6-6-6-7-|
||o-^4--4--4-4-4---|------------------|-^4--4--4-4-4-4---|
||-----------------|------------------|------------------|


      AV              C#m            AV
  +E  E. S E E q  E    Q  E. S E E E E   +Q   E. S E E q
|-(5)-5--5-5-5-5----|-^4--4--4-4-4-4-5-|-(5)--5--5-5-5-5--|
|-(5)-5--5-5-5-6----|-^5--5--5-5-5-5-5-|-(5)--5--5-5-5-5--|
|-(6)-6--6-6-6-6----|-^6--6--6-6-6-6-6-|-(6)--6--6-6-6-6--|
|-(7)-7--7-7-7-7----|-^6--6--6-6-6-6-7-|-(7)--7--7-7-7-7--|
|-------------------|-^4--4--4-4-4-4---|------------------|
|-------------------|------------------|------------------|


  1.
  Bm                        E
  Gtr I
  Q  Q   E   E      E   E    E    E E E E E +S E.
  |  |   |   |      |   |    |    | | | | |  | |
  /  /   /   /      /   /    /    / / / / /  / /

                             ~~~~~~
  H     +E   E     +E   E    h.              Q
|----------------------12-|------------------------||
|-7-----(7)---------------|-----------------------o||
|-7-----(7)-11b13-(11)----|-11b13r==========11-----||
|-9-----(9)---------------|------------------------||
|-------------------------|-----------------------o||
|-------------------------|------------------------||


 2.
  Bm                                                        E                E/D
  E E  E      E               E               E     +S E.    E      E   E     E      E  E +S E.
  | |  |      |               |               |      | |     |      |   |     |      |  |  | |
  / /  /      /               /               /      / /     /      /   /     /      /  /  / /

  Q    E     +S      +S      +S      +S      +E      Q       E     +E   E     E     +Q     Q
|---------------------------------------------------------|--------------------------------------|
|-7-------------------------------------------------------|------------12----12------------------|
|-7---11b13r(11)b13r(11)b13r(11)b13r(11)b13r(11)b13-------|-11b13-(11)-11b13-11b13r(11)----------|
|-9-------------------------------------------------------|--------------------------------------|
|---------------------------------------------------------|--------------------------------------|
|---------------------------------------------------------|--------------------------------------|


  E/C#             E/B
  Gtr I
   E         E      E  E E E Q
   |         |      |  | | |
   /         /      /  / / /

   S     +S  E     +Q    Q   Q
|-------------------------------|
|-10----------------------------|
|--9b11==(9)r9b11==(9)r==9------|
|-------------------------------|
|-------------------------------|
|-------------------------------|


  E               E/D               E/C#            E/B
   E    E     E E  E    E     E E   E E   E    E E  E E E
   |    |     | |  |    |     | |   | |   |    | |  | | |
   /    /     / /  /    /     / /   / /   /    / /  / / /

                                                 >
   S  e    S  e E  S  e    S  e E   E S S S S  e Q    Q
|----12------12------10------10---|-9---9--------7\--------||
|---------------------------------|-----------13-----------||
|-13------13----x-11------11----x-|---9-----9----7\--------||
|---------------------------------|------------------------||
|---------------------------------|------------------------||
|---------------------------------|------------------------||


   Organ Solo
                                                         1.
    D                 G                 A
    Gtrs I, II
     Q  E E E E E E   E E E E E E E E   E E E E E E E E   E E E E E E E E
||--^2--2-2-2-2-2-2-|-3-3-3-3-3-3-3-3-|-0-0-0-0-0-0-0-0-|-0-0-0-0-0-0-0-0--||
||o-^3--3-3-3-3-3-3-|-3-3-3-3-3-3-3-3-|-2-2-2-2-2-3-3-3-|-2-2-2-2-2-2-2-2-o||
||--^2--2-2-2-2-2-2-|-0-0-0-0-0-0-0-0-|-2-2-2-2-2-2-2-2-|-2-2-2-2-2-2-2-2--||
||--^0--0-0-0-0-0-0-|-0-0-0-0-0-0-0-0-|-2-2-2-2-2-2-2-2-|-2-2-2-2-2-2-2-2--||
||o-----------------|-2---2---2---2---|-0---0---0---0---|-0---0---0---0---o||
||------------------|-3---3---3---3---|-----------------|------------------||


  2.
  E
  Gtr I
  E       E     E   E       E     E   +S   E.
  |       |     |   |       |     |    |   |
  /       /     /   /       /     /    /   /

  Gtr II
  S   e     S   e   S   S   S S   e    E      +E
|-------------------------------------------------||
|-------------------------------------------------||
|-4b6-4b6---4b6-4b6-4b6-4b6---4b6-4b6--4b6r===(4)-||
|-------------------------------------------------||
|-------------------------------------------------||
|-------------------------------------------------||


  A                            E
  E  E   E E E E +S   E.       E E E E    E  E +S E.
  |  |   | | | |  |   |        | | | |    |  |  | |
  /  /   / / / /  /   /        / / / /    /  /  / /

  E.   S e e e e  E      +E    e e e E   +Q     Q
|----------------------------|-2----------------------|
|----------------------------|---5-2------------------|
|-4----2-4-2-1-2--4b6----(4)-|-------4b6-(4)----------|
|----------------------------|------------------------|
|----------------------------|------------------------|
|----------------------------|------------------------|


  F#m                             A
  Gtr I
  E   E E E     E E     +S E.     E   E         E   E    E E +S E.
  |   | | |     | |      | |      |   |         |   |    | |  | |
  /   / / /     / /      / /      /   /         /   /    / /  / /

          |-3-|   |-3-|
  S S E E S S S E S S S  E    E   E.    +S     +E   S  S E Q       E
|-------------------------------|------------------------------------|
|-2h3p2-3-2h3p2-----------------|------------------------------------|
|---------------4-2h4p2---------|-4b6r==(4)b6==(4)r(4)p2-4-2---------|
|------------------------4----2-|------------------------------------|
|-------------------------------|------------------------------------|
|-------------------------------|------------------------------------|


  E   E    E  E      E      E    +S E.
  |   |    |  |      |      |     | |
  /   /    /  /      /      /     / /

  S E   S  E  S  S  +S   S  S  S  E     E
|--------------------------------14----12---|
|------------10-12-(12)-10-12s14------------|
|-------9-11--------------------------------|
|-------------------------------------------|
|-------------------------------------------|
|-7-9---------------------------------------|


  E                              F#m
   E E  E        E E  E +S E.    E  E     E     E     E     E    +S E.
   | |  |        | |  |  | |     |  |     |     |     |     |     | |
   / /  /        / /  /  / /     /  /     /     /     /     /     / /

   ~~                 ~~
        |--3--|
   Q    S  S  S  E    H          E  S  S  S  S  S  S  S  S  S  S  E     E
|------------------------------|---------------------------------------------|
|-14---12h14p12----------------|---------------------------------------------|
|---------------14---13--------|---------14-16p14----14-16p14----14----16b18-|
|------------------------------|---14-16----------16----------16-------------|
|------------------------------|---------------------------------------------|
|------------------------------|---------------------------------------------|


  A
    E  E  E    E  E    E  +S  E.
    |  |  |    |  |    |   |  |
    /  /  /    /  /    /   /  /

                                  ~~~~~
   +Q     Q       Q       +E      E
|--------------------------------------||
|--------------------------------------||
|-(16)---16b18---16b18r==(16)----16b18-||
|--------------------------------------||
|--------------------------------------||
|--------------------------------------||


   Bridge 2
    C#m          AV                     C#m            AV
    Gtrs I, II
     Q  Q  E E E E   +Q   E. S E E q     Q  E. S E E E E
||--^4--4--4-4-4-5-|-(5)--5--5-5-5-5--|-^4--4--4-4-4-4-5-|
||o-^5--5--5-5-5-5-|-(5)--5--5-5-5-5--|-^5--5--5-5-6-6-5-|
||--^6--6--6-6-6-6-|-(6)--6--6-6-6-6--|-^6--6--6-6-6-6-6-|
||--^6--6--6-6-6-7-|-(7)--7--7-7-7-7--|-^6--6--6-6-6-6-7-|
||o-^4--4--4-4-4---|------------------|-^4--4--4-4-4-4---|
||-----------------|------------------|------------------|


       A             C#m            AV
  +Q   E. S E E q     Q  E. S E E E E   +Q   E. S E E q
|-(5)--5--5-5-5-5--|-^4--4--4-4-4-4-5-|-(5)--5--5-5-5-5--|
|-(5)--5--5-5-5-6--|-^5--5--5-5-5-5-5-|-(5)--5--5-5-5-5--|
|-(6)--6--6-6-6-6--|-^6--6--6-6-6-6-6-|-(6)--6--6-6-6-6--|
|-(7)--7--7-7-7-7--|-^6--6--6-6-6-6-7-|-(7)--7--7-7-7-7--|
|------------------|-^4--4--4-4-4-4---|------------------|
|------------------|------------------|------------------|


  Bm                         E
  Gtr I
  E E E  E E  E +S     E.     E     E    E E  E    E +S E.
  | | |  | |  |  |     |      |     |    | |  |    |  | |
  / / /  / /  /  /     /      /     /    / /  /    /  / /

                                    ~~~~~
  Q   E  E E  E  S     S E    E     Q.        Q       Q
|--------------------------|--------------------------------||
|-7------------------------|-------------------------------o||
|-7--------9-11-11b12r11p9-|-11b13-11b13-----11b13----------||
|-9---9-11-----------------|--------------------------------||
|--------------------------|-------------------------------o||
|--------------------------|--------------------------------||


  Bm                  E            E/D
  E E E E E E +S E.   E  E E  E      E   E +S E.
  | | | | | |  | |    |  | |  |      |   |  | |
  / / / / / /  / /    /  / /  /      /   /  / /

  Q   E E E E  Q      e  e e  E     +E   e  e     e
|-------------------|-------------------12-----------|
|-7---7-7-7-7--7----|----------------------14----12--|
|-7---7-7-7-7--7----|------9-11b13-(11)--------------|
|-9---9-9-9-9--9----|-9-11---------------------------|
|-------------------|--------------------------------|
|-------------------|--------------------------------|


  E/C#                 E/B
   E      E     E    E E E +S E.
   |      |     |    | | |  | |
   /      /     /    / / /  / /

                       ~
   E     +S  S  S S  E Q    E     E
|------------------------------------|
|------------------------------------|
|-11b13r(11)p9-11p9----9---------(0)-|
|-------------------11------9--------|
|------------------------------------|
|------------------------------------|


                                               D.S. al Coda
  E                     E/D            E/C#      E/B
   E    E     E E  E    E    +S E.     E E E  E  E E +S E.
   |    |     | |  |    |     | |      | | |  |  | |  | |
   /    /     / /  /    /     / /      / / /  /  / /  / /

   S  e    S  e E  S  e    S  e    E   e e E  E  Q    Q
|----12------12------10------10------|---9----8s=7-----------||
|------------------------------------|-----------------------||
|-13------12----x-11------11-------x-|-9---8-(8)s7-----------||
|------------------------------------|-----------------------||
|------------------------------------|-----------------------||
|------------------------------------|-----------------------||


  &
  A
  E  E              E             E E E +S  E.
  |  |              |             | | |  |  |
  /  /              /             / / /  /  /

  E  S     +S      +S      +S     E E E +S  E.
|----------------------------------------------|
|---17-----------------------------------------|
|---16b18r(16)b18r(16)b18r(16)b18--------------|
|-------------------------------------------2--|
|-0---------------------------------2s4-(4)----|
|----------------------------------------------|


  E
  E         E               E       E E   E +S  E.
  |         |               |       | |   |  |  |
  /         /               /       / /   /  /  /

  S  S     +S      +S      +S     Q     S E +S  E.
|--------------------------------------------------|
|---12---------------------------------------------|
|---11b13r(11)b13r(11)b13r(11)b13------------------|
|-----------------------------------------4-(4)-2--|
|--------------------------------------------------|
|-0------------------------------------------------|


  F#m                   A
  E E E E E E +S E.      E  E          E          E E E +S  E.
  | | | | | |  | |       |  |          |          | | |  |  |
  / / / / / /  / /       /  /          /          / / /  /  /

  E E E E E E  E    E   +E  S   +S    +S    +S    Q   E +S  E.
|---------2-----------|----------------------------------------|
|-------2-------------|----------------------------------------|
|-----2---------------|-----4b6r(4)b6r(4)b6r(4)b6--------------|
|---4-----------------|---------------------------2s==4-(4)-2--|
|-------------------0-|-(0)------------------------------------|
|-2---------2--4------|----------------------------------------|


  E  E              E             E E E +S  E.
  |  |              |             | | |  |  |
  /  /              /             / / /  /  /

  E  S     +S      +S      +S     E E E +S  E.
|----------------------------------------------|
|---17-----------------------------------------|
|---16b18r(16)b18r(16)b18r(16)b18--------------|
|-------------------------------------------2--|
|-0---------------------------------2s4-(4)----|
|----------------------------------------------|


  E
  E  E              E             E E E +S  E.
  |  |              |             | | |  |  |
  /  /              /             / / /  /  /

  E  S     +S      +S      +S     Q   E +S  E.
|----------------------------------------------|
|---12-----------------------------------------|
|---11b13r(11)b13r(11)b13r(11)b13--------------|
|-------------------------------------4-(4)-2--|
|----------------------------------------------|
|-0--------------------------------------------|


  F#m                   A
  E E E E E E +S E.      E  E   E  E  E E   +S  E.
  | | | | | |  | |       |  |   |  |  | |    |  |
  / / / / / /  / /       /  /   /  /  / /    /  /

  E E E E E E  E    E   +E  Q     +E  e S S +S  E.
|---2-----------------|-----------------------------||
|-----2---------------|-----------------------------||
|-------2-------------|-----4b6r==(4)-2---2-(2)-2---||
|-4-------4-----------|-----------------2h4-(4)-2---||
|-------------------0-|-(0)-------------------------||
|-----------2--4------|-----------------------------||


 Outro
  A
  E E          E          E E E +S  E.
  | |          |          | | |  |  |
  / /          /          / / /  /  /

  E S   +S    +S    +S    E E E +S  E.
|--------------------------------------|
|---5----------------------------------|
|---4b6r(4)b6r(4)b6r(4)b6--------------|
|-----------------------------------2--|
|-0-------------------------2s4-(4)----|
|--------------------------------------|


  E                                                      F#m               A
  E  E              E             E   E     E  +S E.     E E  E  E E E  +S E.
  |  |              |             |   |     |   | |      | |  |  | | |   | |
  /  /              /             /   /     /   / /      / /  /  / / /   / /

                                                                         |--3---|
  E  S     +S      +S      +S     S E   +S  E.    E  S   e e  e  e E E   E    E E
|------------------------------------------------------|-----------7-9\------------|
|---12-------------------------------------------------|--------10-----------------|
|---11b13r(11)b13r(11)b13r(11)b13----------------------|---9s11--------------------|
|-----------------------------------4---(4)-2----------|-4-------------------------|
|------------------------------------------------------|------------------------0--|
|-0----------------------------------------------------|-----------------2----4----|


   E  E  E  E  E  E    +S  E.
   |  |  |  |  |  |     |  |
   /  /  /  /  /  /     /  /

  +E  E  E  E  E  E     S  S   S  S
|-----------------------------------|
|----------10-12-12b14r12p10--12-10-|
|-----9s11--------------------------|
|-----------------------------------|
|-(0)-------------------------------|
|-----------------------------------|


  A
   E          E        E     E            E         E    +S  E.
   |          |        |     |            |         |     |  |
   /          /        /     /            /         /     /  /

   S     E       S     E     S     S     +S   S     E     E     E
|-----------------------------------------------------------------|
|-12b14-12b14---12b14-12b14-12b14-12b14-(12)-12b14-12b14-12\------|
|-----------------------------------------------------------------|
|-----------------------------------------------------------------|
|-----------------------------------------------------------------|
|-----------------------------------------------------------------|


  E
   E  E          E           E  E E +S E.
   |  |          |           |  | |  | |
   /  /          /           /  / /  / /

   E  S   +S    +S    +S    +Q    Q       +E
|---------------------------------------------|
|-----7b9r(7)b9r(7)b9r(7)b9-(7)s==2-------(2)-|
|---------------------------------------------|
|---------------------------------------------|
|---------------------------------------------|
|-(0)-----------------------------------------|


  F#m                               A
  E    E    E E  E  E     +S E.     E    E    E E E E +S E.
  |    |    | |  |  |      | |      |    |    | | | |  | |
  /    /    / /  /  /      / /      /    /    / / / /  / /

            ~                                 ~
                    |-3-|
  E   +S  S Q   +E  S S S  E    E   E   +S  S H        Q
|---------------------------------|-------------------------|
|---------------------------------|-------------------------|
|-4b6r(4)-2-4---(4)-2h4p2---------|-4b6r(4)p2-4-------------|
|--------------------------4----2-|-------------------------|
|---------------------------------|-------------------------|
|---------------------------------|-------------------------|


  A
  E    E    E     E     E     E    +S  E.
  |    |    |     |     |     |     |  |
  /    /    /     /     /     /     /  /

  S  S S  S S  S  S  S  S  S  S  S  S  S  S  S
|-9h10p9----9----------------------------------|
|--------12---12p10----10-12p10----10----------|
|-------------------11----------11----11--9----|
|-------------------------------------------11-|
|----------------------------------------------|
|----------------------------------------------|


  E
  E    E    E    E    E    E    +S  E.
  |    |    |    |    |    |     |  |
  /    /    /    /    /    /     /  /

  S  S S  S S  S S  S S  S S  S  S  S  S  S
|--------------------------------------------|
|--------------------------------------------|
|-9-11p9----9--------------------------9-11--|
|--------11---11p9----9-11p9-----9-11--------|
|------------------12--------12--------------|
|--------------------------------------------|


  F#m
   E  E  E         E  E         E +S      E.
   |  |  |         |  |         |  |      |
   /  /  /         /  /         /  /      /

   e  e  S     +E.    S     +E.    S     +E.
|--------------------------------------------|
|-10-12-12b14r(12)---12b14r(12)---12b14r(12)-|
|--------------------------------------------|
|--------------------------------------------|
|--------------------------------------------|
|--------------------------------------------|


  A
   E    E E E  E  E +S E.    E    E    E     E    E    E    +S E.
   |    | | |  |  |  | |     |    |    |     |    |    |     | |
   /    / / /  /  /  / /     /    /    /     /    /    /     / /

   ~~~~~
   H           q     Q       S S  S  S S  S  S S  S  S S  S  S S  E
|-------------------------|-12p9----12p9----12p9----12p9----12p9-----|
|-12b14-------12\---------|------10------10------10------10----------|
|-------------------------|---------------------------------------9--|
|-------------------------|------------------------------------------|
|-------------------------|------------------------------------------|
|-------------------------|------------------------------------------|


  E                                     F#m                    A
   E   E    E    E   E    E   +S E.      E    E  E E   E  E +S E.
   |   |    |    |   |    |    | |       |    |  | |   |  |  | |
   /   /    /    /   /    /    / /       /    /  / /   /  /  / /

                                                 ~~
   S S S  S S S  S S S  S S S  S S  E    S S  E  Q    +E  e  e     e
|-------------------------------------|------------------------------|
|-12p9---12p9---12p9---12p9---12p9----|-10p9--------------9-10----12-|
|------9------9------9------9-------9-|------11-11---(11)------------|
|-------------------------------------|------------------------------|
|-------------------------------------|------------------------------|
|-------------------------------------|------------------------------|


   E      E   E      E   E     E +S E.
   |      |   |      |   |     |  | |
   /      /   /      /   /     /  / /

   E     +E   E     +E   Q        Q
|---------------------------------------|
|-12b14r(12)-12b14r(12)-12b14\----------|
|---------------------------------------|
|---------------------------------------|
|---------------------------------------|
|---------------------------------------|


    A
    E    E    E    E    E    E    +S  E.
    |    |    |    |    |    |     |  |
    /    /    /    /    /    /     /  /

    S  S S  S S  S S  S S  S S  S  S  S S  S
||--9-12p9----9-12p9----9-12p9-----9-12p9----|
||o--------10--------10--------10---------10-|
||-------------------------------------------|
||-------------------------------------------|
||o------------------------------------------|
||-------------------------------------------|


  E
  E    E    E    E    E    E    +S  E.
  |    |    |    |    |    |     |  |
  /    /    /    /    /    /     /  /

  S  S S  S S  S S  S S  S S  S  S  S S  S
|-9-12p9----9-12p9----9-12p9-----9-12p9----|
|--------10--------10--------10---------10-|
|------------------------------------------|
|------------------------------------------|
|------------------------------------------|
|------------------------------------------|


  F#m
  E    E    E    E    E    E    +S  E.
  |    |    |    |    |    |     |  |
  /    /    /    /    /    /     /  /

  S  S S  S S  S S  S S  S S  S  S  S  S  S
|-9-12p9----9-12p9----9-12p9-----9-12--9----|
|--------10--------10--------10----------10-|
|-------------------------------------------|
|-------------------------------------------|
|-------------------------------------------|
|-------------------------------------------|


 Begin Fade
  A
  E    E    E    E    E    E    +S  E.
  |    |    |    |    |    |     |  |
  /    /    /    /    /    /     /  /

  S  S S  S S  S S  S S  S S  S  S  S  S  S
|-9-12p9----9-12p9----9-12p9-----9-12--9------||
|--------10--------10--------10----------10--o||
|---------------------------------------------||
|---------------------------------------------||
|--------------------------------------------o||
|---------------------------------------------||




--------------------------------------------------------------------------------


Duration Legend
---------------
W - whole; H - half; Q - quarter; E - 8th; S - 16th; T - 32nd; X - 64th; a - acciaccatura
+ - note tied to previous; . - note dotted; .. - note double dotted
Uncapitalized letters represent notes that are staccato (1/2 duration)
Irregular groupings are notated above the duration line
Duration letters will always appear directly above the note/fret number it represents the
duration for.  Duration letters with no fret number below them represent rests.  Multi-
bar rests are notated in the form Wxn, where n is the number of bars to rest for.  Low
melody durations appear below the staff

Tablature Legend
----------------
 h   - hammer-on
 p   - pull-off
 b   - bend
 pb  - pre-bend
 r   - bend release (if no number after the r, then release immediately)
 /\  - slide into or out of (from/to "nowhere")
 s   - legato slide
 S   - shift slide
 - natural harmonic
[n]  - artificial harmonic
n(n) - tapped harmonic
 ~   - vibrato
 tr  - trill
 T   - tap
 TP  - trem. picking
 PM  - palm muting
\n/  - tremolo bar dip; n = amount to dip
 \n  - tremolo bar down
 n/  - tremolo bar up
/n\  - tremolo bar inverted dip
 =   - hold bend; also acts as connecting device for hammers/pulls
 <> - volume swell (louder/softer)
 x   - on rhythm slash represents muted slash
 o   - on rhythm slash represents single note slash

Misc Legend
-----------
 |  - bar
||  - double bar
||o - repeat start
o|| - repeat end
*|  - double bar (ending)
 :  - bar (freetime)
 $  - Segno
 &  - Coda
Tempo markers -  = BPM(8/16=s8/s16), where s8 = swing 8ths, s16 = swing 16ths



--------------------------------------------------------------------------------


Добавлено: 11.09.2013
Другие материалы по этой песне:

Страница создана 23.06.2013
http://primanota.ru/gallagher-rory/edge-in-blue-chords.htm
Привет, Гость.
Предлагаем пройти революционный курс по гитаре.
Подарок от PrimaNota.Ru, забирай!