PrimaNota.ru - самый крупный в мире бесплатный архив песенных текстов, аккордов, табулатур и нот


Gallagher, Rory - Laundromat Live - таба, видео

Регистрация Запомнить меня
Войти через:  Facebook Google Twitter Vk Yandex Mail.ru

Gallagher, Rory - Laundromat Live - таба, видео

Печатать
Просмотров: 120
-----------------------------------------------------------------
               Laundromat Live - Rory Gallagher
-----------------------------------------------------------------

Tabbed By : Aeonoptic
e-mail: aeonoptic@gmail.com

Tuning: EADGBe

From the Beat Club Sessions

E|-------------------------------------------------------|
B|-----------------------------------------7-5b----------|
G|--------5b6--------------5b--------------7-5b---5b6----|
D|--5-6-7-----7-7----5-6-7----7-7----5-6-7------7-----7~~|
A|7----------------7---------------7---------------------|
E|-------------------------------------------------------| x4

Asus2                     D
What do ya think of that?
             G                      Asus2
I'm sleepin' down at the laundromat
                      D
If you should pass by
A
Be sure to jump right in

E|----------------------------------------------------|
B|5-5-------------------------------------------------|
G|6-6----------5b6--------------5b--------------5~~~~~|
D|7-7----5-6-7-----7-7----5-6-7----7-7----5-6-7-------|
A|-----7----------------7---------------7-------------|
E|5-5-------------------------------------------------|

Asus2                                 D
Well I don't have no clothes to clean,
G                  Asus2
To put inside the machine,
                     D
It was the craziest place,
A
I have ever been.

E|-------------------------------------------|
B|5-5----------------------------------------|
G|6-6----------5b6--------------5b---5-7-7b9~|
D|7-7----5-6-7-----7-7----5-6-7----7---------|
A|-----7----------------7--------------------|
E|5-5----------------------------------------|

D7
Come 'round and meet my friends,

                  A
E|-------------------------|
B|12-12-14-12\----5---5--\-|
G|11-11-11-11\----4h6-4h6\-|
D|12-12-12-12\-------------|
A|-------------------------|
E|-------------------------|

 D7
 They'll be there with me,
E|------------------------2-2-x-2--2-2-2--2-2-|
B|------------------------1-1-x-1--1-1-1--1-1-|
G|------------------------2-2-x-2--2-2-2--2-2-|
D|--------------------------------------------|
A|--------------------------------------------|
E|--------------------------------------------|

 E7
 With me to the end          
E|--------------------------|
B|--------------------------|
G|--------------------------|
D|---2-0---------------2-0--| x2
A|-------2-----------------2|
E|0-----------------0-------|
                     
                     A
  With me to the end
E|----------------------------------------|
B|----------------------------------------|
G|----------------------------------------|
D|---2-0-------------0h2p0h2p0h2p0h2p0h2p0|
A|-------2--------------------------------|
E|0---------------------------------------|

E|---------------------------------|
B|---------------------------------|
G|--------5b6--------------5b6-----|
D|--5-6-7-----7-7----5-6-7-----7-7-|
A|7----------------7---------------|
E|---------------------------------|

Solo
E|---------------------------------------------------|------------------------------------------------|
B|15p13p12-------------------------------------------|15p13p12----------------------------------------|
G|---------14p12\10-12p10\9-----10-12b13-12b13-12b13\|---------14p12\10-12p10\9-----10-12b13-12b13----|
D|---------------------------12----------------------|---------------------------12----------------12\|
A|---------------------------------------------------|------------------------------------------------|
E|---------------------------------------------------|------------------------------------------------|

E|-------------------------------------|------------------------------------------------------------------|
B|15p13p12-13p12----12-----------------|------------------------------------10-12-13-15-15br17p13-15-13---|
G|---------------14----12--9-12-12b14~~|12-11-9----------------9-11-12p11p9-----------------------------14|
D|-------------------------------------|--------12p11-9--11-12--------------------------------------------|
A|-------------------------------------|------------------------------------------------------------------|
E|-------------------------------------|------------------------------------------------------------------|

E|----------------------------------------------------------------------------|
B|13-15br17p13-15-13-----13-15br17p13-15-13-----------------------------------|
G|-------------------14---------------------14-12\11-9--12p11p9-11-12-12b14~~~|
D|----------------------------------------------------------------------------|
A|----------------------------------------------------------------------------|
E|----------------------------------------------------------------------------|

E|--------------------------------------------------------|-----------------------------------------|
B|---------------------------------------10-13b15p10----10|---------------------------------13-15-13|
G|12-11-9----------------9-11-12p11p9-12-------------12---|14b16-14-12----------------12-14---------|
D|--------12-11-9--11-12----------------------------------|------------14-12----12-14---------------|
A|--------------------------------------------------------|------------------15---------------------|
E|--------------------------------------------------------|-----------------------------------------|

E|------15---------------15-17-17b19|12-15-12-15-15b17--15-12-----------------------------------|
B|15b17----15pb17--15h17------------|-------------------------15-13-12--------------------------|
G|----------------------------------|----------------------------------14--12-14-11-9-12-12b14~~|
D|----------------------------------|-----------------------------------------------------------|
A|----------------------------------|-----------------------------------------------------------|
E|----------------------------------|-----------------------------------------------------------|

E|-----------------------------------------|----------------------------------------------------------|
B|-----------------------------------------|----------------------------------------------------------|
G|14-12-9----------------9----------9-11-12|--------9-11-12--------9-11-12-11-9-----------------------|
D|--------12-11-9--11-12----9-11-12--------|9-11-12----------11-12--------------12-12-11h12p11-9-11-12|
A|-----------------------------------------|----------------------------------------------------------|
E|-----------------------------------------|----------------------------------------------------------|

E|--------------------------------------------------------------------|----10-10-----------------10----10----|
B|------------------13-15br17p13---15-13-12---------------------------|----------13-10--------------13-------|
G|11-12p11-9--12-14---------------x---------14-12~~--11-9-11-12-12b14\|/11-------------12-11--11----------11\|
D|-------------------------------x------------------------------------|--------------------------------------|
A|--------------------------------------------------------------------|--------------------------------------|
E|--------------------------------------------------------------------|--------------------------------------|


E|-----------------------|----10-12b14-10-------------------|
B|-----------------------|----------------10----------------|
G|12br14-9-11-12-12b14~~~|/11----------------12-9-11--------|
D|-----------------------|---------------------------12-12\-|
A|-----------------------|----------------------------------|
E|-----------------------|----------------------------------|


E|-----------------|    E|---------------------| 
B|-----------------|    B|---------------------|
G|-----------------|    G|---------------------|
D|--2-0-------2-0--|    D|0h2p0h2p0h2p0h2p0h2p0|
A|------2---------2| x3 A|---------------------|
E|0---------0------|    E|---------------------|

E|-----------------------------------------------------|
B|----------------------------------------7-5b---------|
G|--------5b--------------5b--------------7-5b---5b----|
D|--5-6-7----7-7----5-6-7----7-7----5-6-7------7----7~~|
A|7---------------7---------------7--------------------|
E|-----------------------------------------------------| x2

Asus2               D
They say I told you so,
      G                  Asus2
Maybe bad times come and go,
                        D
If you don't know that right now,
                  A
Then you'll never know.

E|-----------------------------------------------------|
B|5-5--------------------------------------------------|
G|6-6----------5b6--------------5b6--------------5~~~~~|
D|7-7----5-6-7-----7-7----5-6-7-----7-7----5-6-7-------|
A|-----7----------------7----------------7-------------|
E|5-5--------------------------------------------------|

Asus2                D              
What do you think of that,
           G                        Asus2
I'm on the street like an old stray cat,
              D
If you should look for me,
                    A
You'd know exactly where to go.

E|---------------------------------------------|
B|5-5------------------------------------------|
G|6-6----------5b6--------------5b---5-7-7b9~~~|
D|7-7----5-6-7-----7-7----5-6-7----7-----------|
A|-----7----------------7----------------------|
E|5-5------------------------------------------|

  D7                                                 
  Come 'round                    and meet my friends
E|----------------------------------------------------------------------|
B|----------------------------------------------------------------------|
G|-------------9-12-10-9-10-9-7-5--------------------7br9p5-7br9p5-7-5--|
D|-------------8-11-9--8-9--8-6-4--------------------------------------7|
A|-------------9-12-10-9-10-9-7-5---------------------------------------|
E|----------------------------------------------------------------------|

  They'll be there with me,
E|---------------------------------------------------|
B|---------------------------------------------------|
G|---------------------------------------------------|
D|--------------------------7-7-----7-----7-----7----|
A|----------------------7h9-----7h9---7h9---7h9---9\-|
E|---------------------------------------------------|

 E7                               
 Right through to the end           
E|--------------------------|    E|0-0-0-0--0-0-0-0|
B|--------------------------|    B|1-1-1-1--3-3-3-3| 
G|--------------------------|    G|2-2-2-2--4-4-4-4|
D|---2-0---------------2-0--| x3 D|----------------|
A|-------2-----------------2|    A|----------------|
E|0-----------------0-------|    E|----------------|    

E|-------------------------------------------------------|
B|------------------------------------------7-5b---------|
G|--------5b---------------5b---------------7-5b---5b----|
D|--5-6-7-----7-7----5-6-7----7-7-----5-6-7------7----7~~|
A|7----------------7----------------7--------------------|
E|-------------------------------------------------------| x5           

Asus2                     D
What do ya think of that?
             G                      Asus2
I'm sleepin' down at the laundromat
                      D
If you should pass by
A
Be sure to jump right in

E|-----------------------------------------------------------|
B|5-5-------------------------------------------7-5b---------|
G|6-6----------5b--------------5b---------------7-5b---5b----|
D|7-7----5-6-7-----7-7----5-6-7----7-7----5-6-7------7----7~~|
A|-----7----------------7---------------7--------------------|
E|5-5--------------------------------------------------------|

Asus2                                 D
Well I don't have no clothes to clean,
G                  Asus2
To put inside the machine,
                     D
It was the craziest place,
A
I have ever been.


E|--------------------------------------------|
B|5-5-----------------------------------------|
G|6-6----------5b--------------5b---5-7-7b9~~~|
D|7-7----5-6-7----7-7----5-6-7----7-----------|
A|-----7---------------7----------------------|
E|5-5-----------------------------------------|

Come round,                   and meet my friends
E|-----------------------------------------------------------------------------|
B|-----------------------------------------------------------------------------|
G|-----------------------------------------------------------------------------|
D|4-4-4-4-7-7-4-4-7-7-4-4-7-7-4-4-7-7-4----------------------4-7---------------|
A|------------------------------------------------4-4-4-4-7b------4-4-4-4-4-7-4|
E|-----------------------------------------------------------------------------|

  They'll be there with me        With me until the end
E|2-2-x-2-x-x-2-x-x-2--------| |-------------------------|
B|1-1-x-1-x-x-1-x-x-1--------| |-------------------------|
G|2-2-x-2-x-x-2-x-x-2--------| |-------------------------|
D|---------------------------| |---14-12--------14-12----|
A|---------------------------| |---------14-----------14-| x2
E|---------------------------| |-0------------0----------|

  With me until the end
E|--------------------------------------------|
B|--------------------------------------------|
G|---14-12-------14-12------14-12-14-14b16~~~~|
D|---------14----------14---------------------|
A|--------------------------------------------|
E|0------------0------------------------------|

E|--------------------------------------------------------|
B|----------------------------------------7-5b------------|
G|--------5b--------------5b--------------7-5b---5b-------|
D|--5-6-7----7-7----5-6-7----7-7----5-6-7-----7----7-5----|
A|7---------------7---------------7--------------------7-4|
E|--------------------------------------------------------|

E|---------------------------------------------------------------------|
B|----------------------------------------7-5b-------------------------|
G|--------5b--------------5b--------------7-5b---5---------------------|
D|--5-6-7----7-7----5-6-7----7-7----5-6-7------7---7p5p4---------------|
A|7---------------7---------------7----------------------7p5p4---------|
E|-------------------------------------------------------------8-5-8b-5|

E|-----------------------------------------------------|
B|----------------------------------------7-5b------5--|
G|------5b---------------5b---------------7-5b---5b-7b9|
D|5-6-7-----7-7----5-6-7----7-7-----5-6-7------7-------|
A|---------------7----------------7--------------------|
E|-----------------------------------------------------|

E|-------------------------------------------------------|
B|------------------------------------------7-5b---------|
G|--------5b---------------5b---------------7-5b---5b----|
D|--5-6-7-----7-7----5-6-7----7-7-----5-6-7------7----7~~|
A|7----------------7----------------7--------------------|
E|-------------------------------------------------------|

E|------------------------------------------------------------------------|
B|------------14-12-----------------14-12-----------------14-12-----------|
G|------------14-12-----------------14-12-----------------14-12-----------|
D|---12-13-14-------14-----12-13-14-------14-----12-13-14-------14-12-11~~|
A|14--------------------14--------------------14--------------------------|
E|------------------------------------------------------------------------|

E|------------------------------------------------------------------------|
B|------------14-12-----------------14-12-----------------14-12-----------|
G|------------14-12-----------------14-12-----------------14-12-----------|
D|---12-13-14-------14-----12-13-14-------14-----12-13-14-------14-12-11~~|
A|14--------------------14--------------------14--------------------------|
E|------------------------------------------------------------------------|

E|-------------------------------------------------------------------------------|
B|------------14-12-----------------14-12-14--------------14-12------------------|
G|------------14-12-----------------14-12-14--------------14-12------------------|
D|---12-13-14-------14-----12-13-14--------------12-13-14-------14-12-11----11-12|
A|14--------------------14--------------------14-------------------------14------|
E|-------------------------------------------------------------------------------|

E|---------------------------------------------------|-----------------------------|
B|---------------------------------------------------|-----------------------------|
G|12br14p10-12b--12-11-9-----------9-11-9-12-11------|-----------------9-----------|
D|-----------------------12--11-12--------------12-11|11-11h12-9-11-12---12-12p11-9|
A|---------------------------------------------------|-----------------------------|
E|---------------------------------------------------|-----------------------------|
 
                                                             v all pinch harmonics
E|---------------------------------------------------|--------------------------|
B|---------------------------------------------------|--------------------------|
G|------9------------------9-11-12p11-9-12-12-12b14~~|12b14-12pb14-12pb14-12pb13|
D|11-12---11-12p11-9-11-12---------------------------|--------------------------|
A|---------------------------------------------------|--------------------------|
E|---------------------------------------------------|--------------------------|

                (all pinch harmonics)                                
E|------------|---------------------------------| |-----------------|
B|-------13---|--------------10---------------10| |-----------------|
G|12pb14-12b14|9-11-12-11-12----12-11-9-11-12---| |11-14-11-11-12-11|
D|------------|---------------------------------| |-----------------|
A|------------|---------------------------------| |-----------------| x7
E|------------|---------------------------------| |-----------------|

end harmonics
E|-------------|-----------------|---------------------------------|
B|-------------|-----------------|------------------------------10+|
G|12b14~-12b14~|12br14-11-9------|------------------9-11-12b14-----|
D|-------------|------------12-11|11h12-11-9--11-12----------------|
A|-------------|-----------------|---------------------------------|
E|-------------|-----------------|---------------------------------|

E|-----------------------------------------------------|
B|-----------------------------------------------------|
G|12pbr14+-11-9---------------9+-11+-12b14+~~~-12b14~~~|
D|--------------12-11-9-11-12--------------------------|
A|-----------------------------------------------------|
E|-----------------------------------------------------|

E|----------------------------------------------------|
B|--------5b--------------5b--------------7-5b--------|
G|--------5b--------------5b--------------7-5b--------| x2
D|--5-6-7----7------5-6-7----7------5-6-7-------------|
A|7------------7--7------------7--7------------7-5-4~~|
E|----------------------------------------------------|

E|-----------------------------------------------------|
B|----------------------------------------7-5b---------|
G|--------5b--------------5b--------------7-5b---5b----|
D|--5-6-7----7-7----5-6-7----7-7----5-6-7------7----7~~|
A|7---------------7---------------7--------------------|
E|-----------------------------------------------------| x2

E|--------------------------------------------------5tr/17|
B|----------------------------------------7-5b------5tr/17|
G|--------5b--------------5b--------------7-5b---5b-6tr/18|
D|--5-6-7----7-7----5-6-7----7-7----5-6-7------7----7tr/19|
A|7---------------7---------------7-----------------------|
E|--------------------------------------------------5tr/17|

| /  slide up
| \  slide down
| h  hammer-on
| p  pull-off
| ~  vibrato
| +  harmonic
| x  Mute note
Добавлено: 09.09.2015
Другие материалы по этой песне:

Страница создана 05.06.2013
http://primanota.ru/gallagher-rory/laundromat-live-chords.htm
Привет, Гость.
Предлагаем пройти революционный курс по гитаре.
Подарок от PrimaNota.Ru, забирай!