PrimaNota.ru - самый крупный в мире бесплатный архив песенных текстов, аккордов, табулатур и нот


Gallagher, Rory - Bankers Blues - таба, видео

Регистрация Запомнить меня
Войти через:  Facebook Google Twitter Vk Yandex Mail.ru

Gallagher, Rory - Bankers Blues - таба, видео

Печатать
Просмотров: 160
Song: Banker's Blues
Artist: Rory Gallagher

This version of banker's blues can be found here:

http://www.youtube.com/watch?v=z4CX03DlqDQ

have fun!

Intro:

-12-12-12-12-12-12-------7-9-7---7-9-7---7----|
-13b13b13-13b13-13b----8b------9-------9------|
----------------------------------------------|
----------------------------------------------|
----------------------------------------------|
-0--0--0--0--0--0----0------------------------|

-----2---2-3-2-------2---2-3h2--2-------------|
------1----1-1--------1-------1---------------|
-------2---------------2-------2--------------|
----------------------------------------------|
----------------------------------------------|
-0-2-----------0-1-2--------------1-2-3-------|

---5-3-2---3-2---3-2--------------------0-----|
---------5-----5-----5--------------------3---|
------------------------0h1h0h1h0h1h0h1-------|
-2----------------------2---------------------|
-0-0-0-0-0-0-0-0-0-0-0--2---------------------|
------------------------0---------------------|

------------------------------------------------------|
-----1------------5-----4-----3---2h0-----------------|
------2----------------------------------0h1h0h1h0h1--|
-------0------2-5---5-4---4-3---3-2----2--------------|
------------0-0------------------------2--------------|
-0-2----2-0----------------------------0--------------|

verse (after intro):

---------------------2-------------2---------------|
--------------------1-------------0----------------|
----------1--------2------2------2----------1------|
--2------2--------0-------2-----1----------2-------|
-0------2-----0-----------0----2----------2--------|
-------0---------------------------------0---------|

---------------------------------------|
--5----4-----3---2h0-------------------|
-----------------------0h1h0h1h0h1-1---|
-5-5-4---4-3---3-2-----------------2---|
-----------------------------------2---|
----------------------0-----------0----|

verse (throughout the song):

------------------0-0----0-------------------------2-------|
-2-2-2-2-2-2-2-2--0---3b-------2-2-2-2-2-2-2-2----1-1------|
-2-2-2-2-2-2-2-2--1------------2-2-2-2-2-2-2-2---2---2-----|
-2-2-4-2-2-2-4-2--2---------2--2-2-4-2-2-2-4-2--0-----0----|
-0-0---0-0-0---0--2---------2--0-0---0-0-0---0-------------|
-----2-------2----0--------0-0-----2-------2---------------|

-----------------------2------------0------------------------------|
-2-2-2-2-2-2-2--------0------------0-----------5-----4-----3---2h0-|
-2-2-2-2-2-2-2-------2------------1-----2-2------------------------|
-2-2-4-2-2-2-2-----1-------------2------2-2--5---5-4---4-3---3-2---|
-0-0---0-0-0-0-1-2-------2---2--2-------0-0------------------------|
------2---------------------0---0------0---------------------------|

--------0--0---|
--------0--0---|
--0h1---1--1---|
--2-----2--2---|
--------2--2---|
-0----0---0----|

first solo:

-2-3---2-3---2-3---3----0------0---------------------2---3h2-----2-|
-----5-----5-----5------0-3b---0----2-2-2-2-2-2-------1--1-1-1---1-|
------------------------1------1----2-2-2-2-2-2--------2-2-2-------|
------------------------2----2-2-2--2-2-4-2-2-2--------------------|
-0-0-0-0-0-0-0-0-0-0----2----2-2-2--0-0---0-0-0--------------------|
----------------------0------0-0-02-----2-------0-1-2----------2---|

-5-3-2h3---3-2-------2------0--------------------------------|
---------5-----5-----0--0h1---3b--------5-----4-----3---2h0--|
---------------------2---------------------------------------|
--------------------1---------------2-5---5-4---4-3---3-2----|
-0-0-0-0-0-0-0-0-1-2--------------0-0------------------------|
------------------------0--------2---------------------------|

--------0-0--s-9-9-9-9-9-9-9----7-----7---7-----7----------|
--------0-0--s-8-8-8-8-8-8-8-------------------------------|
---0h1--1-1--s-9-9-9-9-9-9-9----7-----7---7-----7----2-----|
--2-----2-2--------------------6-----6---6----6------2-----|
--------2-2-------------------7---------7----------7s0-----|
-0-----0-0-------------------------7---------7-------------|

-5-3-2---3-2-----2-----3h2-----------0----------------2-----0---------|
-------5-----------1--------1--------2-3-4-5-5-5------0-----0---------|
---------------------2-----2--------------------------2-----2---------|
-----------------------------------------------------1------2----2----|
-0-0-0-0-0-0-----------------------0-0-2-3-4-4-4--0-2---2--2---0-0----|
-------------0-2---------------2-2------------------------0---0-------|

----------------------------0--0--5-5-5-5-5-5-5-5-5-5-5-5-5-5-5-5--|
---5-----4-----3---2h0------0--0-----------------------------------|
-----------------------0h1--1--1-----------------------------------|
-5---5-4---4-3---3-2--------2--2--2-2-----2-2-4-2------------------|
----------------------------2--2--0-0-4-4----------2-2-----2-2-4-2-|
-----------------------0---0--0--------------------0-0-4-4---------|

-5-5-5-5-5-5-5-5--2-2-2-5-5-5--------------------2-----------------|
------------------1-1-1-4-4-4--------------------0-----------------|
------------------2-2-2-5-5-5--------------------2---0h1-----------|
-2-2-----2-2-4-2--------------------------------1-1----------------|
-0-0-4-4-----------------------0-0-0-0-0-0-0-1-2---2---------------|
-----------------------------------------------------0----0-3b-3b--|

-------------------------------------0---0--|
-------5-----4-----3---2h0-----------0---0--|
------------------------------0h1----1---1--|
---2-5---5-4---4-3---3-2-------------2---2--|
-0-0---------------------------------2---2--|
----------------------------0-0----0---0----|

second solo:
----------------------9------------------------------------------------|
------9-10-10-9-10-12---12b-12b-12b-12-10--------12-14--------12-14-12-|
-9-11-------------------------------------s11-14-------s11-14----------|
-----------------------------------------------------------------------|
-----------------------------------------------------------------------|
-----------------------------------------------------------------------|

--------------12-10-9----9-10-12----12-12-9----9------------|
-14-11-14~-10---------12---------10---------12---10-12~-----|
---------------------------------------------------------9~-|
------------------------------------------------------------|
------------------------------------------------------------|
------------------------------------------------------------|

----------------------------------0------4-5-5-4-5-7-9-------------|
-------5-----4-----3---2h0--------0--5-7---------------7b-7b-7b-7b-|
------------------------------0h1-1--------------------------------|
---2-5---5-4---4-3---3-2----------2--------------------------------|
-0-0------------------------------2--------------------------------|
----------------------------0-0------------------------------------|

----------------------------2--2-2-----0---0---0----0---7--7-7--7--|
----5-7-8-7-5---5-----------1--1-1----5---7---5----7---------------|
-s6-----------7---6-7-5-----2--2-2----------------------7--7-7--7--|
------------------------7------------5---7---5----7-----6--6-6--6--|
-------------------------------------------------------7-----------|
---------------------------2--2----2----------------------7----7---|

------------------------------------|
------------------------------------|
---------------------------0h1------|
-2-----2-5-4-2h4h2---2----2---------|
-0-0-4-------------4-----2----------|
------------------------0-----------|

verse (end):

------------------0-0----0-------------------------2-------|
-2-2-2-2-2-2-2-2--0---3b-------2-2-2-2-2-2-2-2----1-1------|
-2-2-2-2-2-2-2-2--1------------2-2-2-2-2-2-2-2---2---2-----|
-2-2-4-2-2-2-4-2--2---------2--2-2-4-2-2-2-4-2--0-----0----|
-0-0---0-0-0---0--2---------2--0-0---0-0-0---0-------------|
-----2-------2----0--------0-0-----2-------2---------------|

---------------------0------0----------------5-4-3-3-3-|
-2-2-2-2-2-2-2------0------0----5---4---3--2-2-2-2-2-2-|
-2-2-2-2-2-2-2-----1------1----------------2-2-2-2-2-2-|
-2-2-4-2-2-2-2----2------2-----5-5-4-4-3-3-2-2-2-2-2-2-|
-0-0---0-0-0-0---2------2------------------0-0-0-0-0-0-|
-----2----------0------0-------------------------------|

- intro
- verse (after intro)
- verse 3x
- first solo
- verse 1x
- second solo
- verse (end)
Добавлено: 24.11.2013
Другие материалы по этой песне:

Страница создана 19.10.2013
http://primanota.ru/gallagher-rory/bankers-blues-chords.htm
Привет, Гость.
Предлагаем пройти революционный курс по гитаре.
Подарок от PrimaNota.Ru, забирай!