PrimaNota.ru - самый крупный в мире бесплатный архив песенных текстов, аккордов, табулатур и нот


Frank Zappa - The Air - текст песни, бас-таба, видео

Регистрация Запомнить меня
Войти через:  Facebook Google Twitter Vk Yandex Mail.ru

Frank Zappa - The Air - текст песни, бас-таба, видео

Печатать
Просмотров: 88
----------------------------------------------------------------------------
			     The Air – The mothers of invention
----------------------------------------------------------------------------


Tuning: EADG (Standard)

Verse 1
  
6/8 timing                 4/4	   
  h (e) e q  e e e e h(e)e q e q e e e 
G|-------|----------|-----|-----------|
D|-------|----------|-----|-----------|
A|0----/9|7--7-9-7-4|2---2|4-2-4—2-4-2|
E|-------|----------|-----|-----------|

6/8                 	   
  h (e) e q  e e e e h(e)e 
G|-------|----------|-----|
D|-------|----------|-----|
A|0----/9|7--7-9-7-4|2---2|
E|-------|----------|-----|

  q e q e q e
G|-----------|
D|-----------|
A|4-2-4—2-4-2|	
E|-----------| x2

  q  h
G|----|
D|----|
A|4--2|	
E|----|
  
Pre-verse
  e e e e e e e e e e e e
G|-----------------------|
D|-----------------------|
A|7-7-7-7-7-7-7-7-7-7-7-7|
E|-----------------------|

Verse 2
  h (e) e q  e q e h (e) e  q  e  q  e
G|-------|--------|--------|----------|
D|-------|--------|--------|----------|
A|0----/9|7--9-7-9|2----/11|9--11-9-11|
E|-------|--------|--------|----------| x4

Chorus
  e e e e h

G|---------|
D|---------|
A|5-5-5-5--|
E|---------| x4
  
          x2         x2
 e e e e(h)  e e e e(h)
G|----------|----------|
D|----------|----------|
A|7-7-7-7---|5-5-5-5---|
E|----------|----------| 


          x2         x1
 e e e e(h)  e e e e(h)
G|----------|----------|
D|----------|----------|
A|7-7-7-7---|5-5-5-5---|
E|----------|----------| 

  e e h
G|-----|
D|-----|
A|--5—7|
E|7----|

Verse 3
  
6/8 timing                 4/4	   
  h (e) e q  e e e e h(e)e q e q e e e 
G|-------|----------|-----|-----------|
D|-------|----------|-----|-----------|
A|0----/9|7--7-9-7-4|2---2|4-2-4—2-4-2|
E|-------|----------|-----|-----------|

6/8                 	   
  h (e) e q  e e e e h(e)e 
G|-------|----------|-----|
D|-------|----------|-----|
A|0----/9|7--7-9-7-4|2---2|
E|-------|----------|-----|

  q e q e q e
G|-----------|
D|-----------|
A|4-2-4—2-4-2|	
E|-----------| x2

  q  h
G|----|
D|----|
A|4--2|	
E|----|
  
Pre-verse
  e e e e e e e e e e e e
G|-----------------------|
D|-----------------------|
A|7-7-7-7-7-7-7-7-7-7-7-7|
E|-----------------------|

Verse 4
  h (e) e q  e q e h (e) e  q  e  q  e
G|-------|--------|--------|----------|
D|-------|--------|--------|----------|
A|0----/9|7--9-7-9|2----/11|9--11-9-11|
E|-------|--------|--------|----------| x4







Chorus
  e e e e h

G|---------|
D|---------|
A|5-5-5-5--|
E|---------| x4
  
          x2         x2
 e e e e(h)  e e e e(h)
G|----------|----------|
D|----------|----------|
A|7-7-7-7---|5-5-5-5---|
E|----------|----------| 


          x2         x1
 e e e e(h)  e e e e(h)
G|----------|----------|
D|----------|----------|
A|7-7-7-7---|5-5-5-5---|
E|----------|----------| 

Ending

G|-|
D|-|
A|-|
E|5|

Hold and sustain last note
Добавлено: 01.05.2012
Другие материалы по этой песне:
  • Аккорды и текст

Страница создана 01.05.2012
http://primanota.ru/frank-zappa/the-air-chords.htm
Привет, Гость.
Предлагаем пройти революционный курс по гитаре.
Подарок от PrimaNota.Ru, забирай!