PrimaNota.ru - самый крупный в мире бесплатный архив песенных текстов, аккордов, табулатур и нот


Frank Zappa - Sinister Footwear Second Movement - таба, бас-таба, видео

Регистрация Запомнить меня
Войти через:  Facebook Google Twitter Vk Yandex Mail.ru

Frank Zappa - Sinister Footwear Second Movement - таба, бас-таба, видео

Печатать
Просмотров: 124
Уроки эстрадного вокала в Санкт-Петербурге
                                \1/                                     
     E   E   E   E   E   E      H.              E   E   E   E   E   E   
E||-------------------------|----------------|-------------------------|
B||-----------------16------|----------------|-----------------16------|
G||-------------12------15--|--17------------|-------------12------15--|
D||---------14--------------|----------------|---------14--------------|
A||-----16------------------|----------------|-----16------------------|
E||-------------------------|----------------|-------------------------|


   \1/                                        \1/           
   H.              E   E   E   E   E   E      H.            
----------------|-----------------13------|----------------|
----------------|-------------------------|--15------------|
--17------------|-------------15----------|----------------|
----------------|---------13----------16--|----------------|
----------------|-----15------------------|----------------|
----------------|-------------------------|----------------|


                             \1/                                     
  E   E   E   E   E   E      H.              E   E   E   E   E   E   
-----------------13------|----------------|-------------14----------|
-------------------------|--15------------|---------------------15--|
-------------15----------|----------------|-----------------12------|
---------13----------16--|----------------|---------12--------------|
-----15------------------|----------------|-----14------------------|
-------------------------|----------------|-------------------------|


   \1/                                        \1/           
   H.              E   E   E   E   E   E      H.            
----------------|-------------14----------|----------------|
--14------------|---------------------15--|--14------------|
----------------|-----------------12------|----------------|
----------------|---------12--------------|----------------|
----------------|-----14------------------|----------------|
----------------|-------------------------|----------------|


                             \1/                                     
  E   E   E   E   E   E      H.              E   E   E   E   E   E   
-----------------16------|----------------|-----------------16------|
---------------------18--|----------------|---------------------18--|
-------------------------|--20------------|-------------------------|
-------------19----------|----------------|-------------19----------|
---------16--------------|----------------|---------16--------------|
-----18------------------|----------------|-----18------------------|


   \1/                                                                     
                             |--3--|                                       
   H.              Q    Q    E  E  E     Q.      E  E  E     H.            
----------------|-------9----9--9--7--|--9----------------|---------------|
----------------|---------------------|---------10--L--8--|---------------|
--20------------|---------------------|-------------------|---------------|
----------------|---------------------|-------------------|---------------|
----------------|---------------------|-------------------|---------------|
----------------|--6------------------|-------------------|--6------------|


  |--3--|                                                                  
  E  E  E  H           Q    Q    Q       H.              Q    Q    E  S S  
--9--7--9--L--------|-----------------|---------------|-------------------|
--------------------|-------8----8----|--8------------|--8----8----L--8-8-|
--------------------|-----------------|---------------|-------------------|
--------------------|-----------------|---------------|-------------------|
--------------------|-----------------|---------------|-------------------|
--------------------|--5--------------|---------------|-------------------|


  |--3--|                                                                     
  E  E  E  H           Q    Q    Q       E  E  E  E  E  E     Q    Q.     E   
--------------------|-------6----6----|--6--6--------------|-------7---------|
--8--8-----8--------|-----------------|--------7--9--------|--------------7--|
--------7-----------|-----------------|--------------8-----|-----------------|
--------------------|-----------------|-----------------6--|-----------------|
--------------------|-----------------|--------------------|-----------------|
--------------------|--4--------------|--------------------|--4--------------|


  H.              Q    Q    Q       H.              Q    H         
---------------|-----------------|---------------|----------------|
--9------------|-------8----8----|--8------------|--8----8--------|
---------------|-----------------|---------------|----------------|
---------------|-----------------|---------------|----------------|
---------------|-----------------|---------------|----------------|
---------------|--3--------------|---------------|----------------|


  |--3--|                                  |---5---| |---5---|          
  E  E  E  H           H        S S S S    S S S S S S S S S S S S S S  
--------------------|-------------------|--------------7---------7---7-|
--8--8-----8--------|-------------------|------5-5-9-7---------9---7---|
--------7-----------|-------------5-----|----5-----------5---5---------|
--------------------|--4------------7-9-|--6---------------6-----------|
--------------------|-------------------|------------------------------|
--------------------|-------------------|------------------------------|


  |---5---|                                              |---3---|   
  S S S S S Q.     E     E  E  E  E  E  E     Q     Q    E   E   E   
--7-------------------|--------------------|------------------------|
--------7-7-7---------|--------------------|------------------------|
----6-6---------------|--------------------|------------------------|
----------------------|-----------------4--|--3---------------------|
----------------------|-----------2--4-----|-------14----L--12--15--|
-------------------4--|--4--5--5-----------|------------------------|


   |-----5-----|  |-----11----|  |-----11----|  11    |-----5-----|             
   S  S  S  S  S  S  S  S  S  S  S  S  S  S  S  S     S  S  S  S  S  Q.     E   
-----------------11----------11-------------11----|--12-11-11-15----14---------|
--------------------14-11-11-------14-11-11-------|----------------------------|
--------------------------------13-------------13-|--------------13------------|
--------15-14-14----------------------------------|----------------------------|
--11----------------------------------------------|----------------------------|
-----14-------------------------------------------|-------------------------4--|


                                       11:3                                
                                       11   11 11 11 11 11 11 11 11 11 11  
  E  E  E  E  E  E     H.              S.   S. S. S. S. S. S. S. S. S. S.  
--------------------|---------------|-------------------------------------|
--------------------|---------------|-------------3--2--2--------2--------|
--------------------|---------------|--4----2--2-----------4--4-----------|
--------------1--0--|--2------------|-------------------------------4--0--|
--------2--4--------|---------------|-------------------------------------|
--4--5--------------|---------------|-------------------------------------|


  |---5---| |---5---| |---5---|                       
  S S S S S S S S S S S S S S S    E  E  E  E  E  E   
----------5---2-2---------------|--5-----------------|
----2-2-----5-------3-2---------|--------------------|
--3-----2-----------------3-4-2-|--------------------|
------------------5-----1-------|--2-----------------|
--------------------------------|-----5--5--4--4-----|
--------------------------------|-----------------2--|


                                    10:3                            
            |-----7-----|  7  7     10   10 10 10 10 10 10 10 10 10 
  H         S  S  S  S  S  S  S     S.   S. S. S. S. S. S. S. S. S. 
--------------------------------|-------12----------14-------12----|
-----------12-11----------11-12-|--14------13-12-------14-13----13-|
-----------------12-11-12-------|----------------12----------------|
--------------------------------|----------------------------------|
--------------------------------|----------------------------------|
--3-----------------------------|----------------------------------|


                                                 \0/        
               |---3---|                                    
   S  S  S  S  E   E   E   S  T T E     E  E  E  E   E  E   
-----------14----------------12-9-L--|---------------------|
--12-11-11------------11--13---------|---------------------|
--------------11---------------------|---------------------|
------------------14-----------------|---------------------|
-------------------------------------|------------------1--|
----------------------------------9--|--7--6--3--0---2-----|


  E.   T   T   E  S  S   Q       E.   T   T   E  S  S   Q     
------------------------------|------------------------------|
------12h-14h-15----14h-15----|------12h-14h-15----14h-15----|
------------------------------|------------------------------|
------------------------------|------------------------------|
------------------------------|------------------------------|
------------------------------|------------------------------|


  E.   T   T   E  S  S   Q       S  S  S  S  E.   T  T  Q     
------------------------------|-------------12------12-------|
------12h-14h-15----12h-14----|------------------11----14----|
------------------------------|----14-11-14------------------|
------------------------------|------------------------------|
------------------------------|------------------------------|
------------------------------|------------------------------|


  E.   T   T   E  S  S   Q       E.   T   T   E  S  S   Q     
------------------------------|------------------------------|
------12h-14h-15----14h-15----|------12h-14h-15----14h-15----|
------------------------------|------------------------------|
------------------------------|------------------------------|
------------------------------|------------------------------|
------------------------------|------------------------------|


  E.   T   T   E  S  S   Q       S  S  S  S  E.   T  T  Q     
------------------------------|-------------12------12-------|
------12h-14h-15----12h-14----|------------------11----14----|
------------------------------|----14-11-14------------------|
------------------------------|------------------------------|
------------------------------|------------------------------|
------------------------------|------------------------------|


  E.   T   T   E  S  S   Q       E.   T   T   E  S  S   Q     
------------------------------|------------------------------|
------12h-14h-15----14h-15----|------12h-14h-15----14h-15----|
------------------------------|------------------------------|
------------------------------|------------------------------|
------------------------------|------------------------------|
------------------------------|------------------------------|


  E.   T   T   E  S  S   Q       S  S  S  S  E.   T  T  Q     
------------------------------|-------------12------12-------|
------12h-14h-15----12h-14----|------------------11----14----|
------------------------------|----14-11-14------------------|
------------------------------|------------------------------|
------------------------------|------------------------------|
------------------------------|------------------------------|


  E.   T   T   E  S  S   Q       E.   T   T   E  S  S   Q     
------------------------------|------------------------------|
------12h-14h-15----14h-15----|------12h-14h-15----14h-15----|
------------------------------|------------------------------|
------------------------------|------------------------------|
------------------------------|------------------------------|
------------------------------|------------------------------|


  E.   T   T   E  S  S   Q       S  S  S  S  E.   T  T  Q     
------------------------------|-------------12------12-------|
------12h-14h-15----12h-14----|------------------11----14----|
------------------------------|----14-11-14------------------|
------------------------------|------------------------------|
------------------------------|------------------------------|
------------------------------|------------------------------|


   slightly faster t=87                                              
   S                    S  S  S  S  S  S  S  S  S  S  S  S  S  S  S  
--------------------------------------------20----------------------|
--------------------------------------20----------20----------------|
--------------------------------17-19----------------19-17----------|
--------------------------17-------------18----18-------------17----|
-----------------------17----------------------------------------17-|
--16-------------------------16----------------------------16-------|


   S  S  S  S  S  S  S  S  S  S  S  S  S  S  S  S  
--------------------------20----------------------|
--------------------20----------20----------------|
--------------17-19----------------19-17----------|
--------17-------------18----18-------------17----|
-----17----------------------------------------17-|
--16-------16----------------------------16-------|


   S  S  S  S  S  S  S  S  S  S  S  S  S  S  S  S  
-----------------------------20-------------------|
--------------------15-16----------16-15----------|
-----------------17----------------------17-------|
--------12-13-------------15----15-------------13-|
-----15-------------------------------------------|
--13----------13----------------------------13----|


   S  S  S  S  S  S  S  S  S  S  S  S  S  S  S  S  
-----------------------------------20-------------|
--------------------------15-16----------16-15----|
-----------------------17----------------------17-|
--12----------12-13-------------15----15----------|
-----15----15-------------------------------------|
--------13----------13----------------------------|


   S  S  S  S  S  S  S  S  S  S  S  S  S  S  S  S  
--------------------------20----------------------|
--------------------20----------20----------------|
--------------17-19----------------19-17----------|
--------17-------------18----18-------------17----|
-----17----------------------------------------17-|
--16-------16----------------------------16-------|


   S  S  S  S  S  S  S  S  S  S  S  S  S  S  S  S  
--------------------------20----------------------|
--------------------20----------20----------------|
--------------17-19----------------19-17----------|
--------17-------------18----18-------------17----|
-----17----------------------------------------17-|
--16-------16----------------------------16-------|


   S  S  S  S  S  S  S  S  S  S  S  S  S  S  S  S  
-----------------------------20-------------------|
--------------------15-16----------16-15----------|
-----------------17----------------------17-------|
--------12-13-------------15----15-------------13-|
-----15-------------------------------------------|
--13----------13----------------------------13----|


   S  S  S  S  S  S  S  S  S  S  S  S  S  S  S  S  
-----------------------------------20-------------|
--------------------------15-16----------16-15----|
-----------------------17----------------------17-|
--12----------12-13-------------15----15----------|
-----15----15-------------------------------------|
--------13----------13----------------------------|


   S  S  S  S  S  S  S  S  S  S  S  S  S  S  S  S  
--------------------------20----------------------|
--------------------20----------20----------------|
--------------17-19----------------19-17----------|
--------17-------------18----18-------------17----|
-----17----------------------------------------17-|
--16-------16----------------------------16-------|


   S  S  S  S  S  S  S  S  S  S  S  S  S  S  S  S  
--------------------------20----------------------|
--------------------20----------20----------------|
--------------17-19----------------19-17----------|
--------17-------------18----18-------------17----|
-----17----------------------------------------17-|
--16-------16----------------------------16-------|


   S  S  S  S  S  S  S  S  S  S  S  S  S  S  S  S  
-----------------------------20-------------------|
--------------------15-16----------16-15----------|
-----------------17----------------------17-------|
--------12-13-------------15----15-------------13-|
-----15-------------------------------------------|
--13----------13----------------------------13----|


   S  S  S  S  S  S  S  S  S  S  S  S  S  S  S  S  
-----------------------------------20-------------|
--------------------------15-16----------16-15----|
-----------------------17----------------------17-|
--12----------12-13-------------15----15----------|
-----15----15-------------------------------------|
--------13----------13----------------------------|


   S  S  S  S  S  S  S  S  S  S  S  S  S  S  S  S  
--------------------------20----------------------|
--------------------20----------20----------------|
--------------17-19----------------19-17----------|
--------17-------------18----18-------------17----|
-----17----------------------------------------17-|
--16-------16----------------------------16-------|


   S  S  S  S  S  S  S  S  S  S  S  S  S  S  S  S  
--------------------------20----------------------|
--------------------20----------20----------------|
--------------17-19----------------19-17----------|
--------17-------------18----18-------------17----|
-----17----------------------------------------17-|
--16-------16----------------------------16-------|


   S  S  S  S  S  S  S  S  S  S  S  S  S  S  S  S  
-----------------------------20-------------------|
--------------------15-16----------16-15----------|
-----------------17----------------------17-------|
--------12-13-------------15----15-------------13-|
-----15-------------------------------------------|
--13----------13----------------------------13----|


   S  S  S  S  S  S  S  S  S  S  S  S  S  S  S  S    S S E  Q    H         
-----------------------------------20-------------|-----------------------|
--------------------------15-16----------16-15----|-----------------------|
-----------------------17----------------------17-|-----------------------|
--12----------12-13-------------15----15----------|--5-6------------------|
-----15----15-------------------------------------|--5-6------------------|
--------13----------13----------------------------|--3-4------------------|


  S S E  Q    E  E  E  E     W                   S S E  Q    S S E  S S E   
--------------------------|-------------------|----------------------------|
--------------------------|-------------------|----------------------------|
--------------------------|-------------------|----------------------------|
--6-5---------5-----6-----|--0----------------|--0-1---------1-0----0-1----|
--6-5---------5-----6-----|--0----------------|--0-1---------1-0----0-1----|
--4-3---------3-----4-----|-------------------|----------------------------|


  S S E  Q    H           S S E  Q    E  E  E  E     W                 
-----------------------|--------------------------|-------------------|
-----------------------|--------------------------|-------------------|
-----------------------|--------------------------|-------------------|
--5-6------------------|--6-5---------5-----6-----|--0----------------|
--5-6------------------|--6-5---------5-----6-----|--0----------------|
--3-4------------------|--4-3---------3-----4-----|-------------------|


                               add your solo in here                     
  S S E  Q    S S E  S S E     S                     S E  Q    H         
----------------------------|-------------------------------------------|
----------------------------|-------------------------------------------|
----------------------------|-------------------------------------------|
--0-1---------1-0----0-1----|--5---------------------6------------------|
--0-1---------1-0----0-1----|--5---------------------6------------------|
----------------------------|--3---------------------4------------------|


  S S E  Q    E  E  E  E     W                   S S E  Q    S S E  S S E   
--------------------------|-------------------|----------------------------|
--------------------------|-------------------|----------------------------|
--------------------------|-------------------|----------------------------|
--6-5---------5-----6-----|--0----------------|--0-1---------1-0----0-1----|
--6-5---------5-----6-----|--0----------------|--0-1---------1-0----0-1----|
--4-3---------3-----4-----|-------------------|----------------------------|


  S S E  Q    H           S S E  Q    E  E  E  E     W                 
-----------------------|--------------------------|-------------------|
-----------------------|--------------------------|-------------------|
-----------------------|--------------------------|-------------------|
--5-6------------------|--6-5---------5-----6-----|--0----------------|
--5-6------------------|--6-5---------5-----6-----|--0----------------|
--3-4------------------|--4-3---------3-----4-----|-------------------|


  S S E  Q    S S E  S S E     S S E  Q    H           S S E  Q    E  E  E  E   
----------------------------|-----------------------|--------------------------|
----------------------------|-----------------------|--------------------------|
----------------------------|-----------------------|--------------------------|
--0-1---------1-0----0-1----|--5-6------------------|--6-5---------5-----6-----|
--0-1---------1-0----0-1----|--5-6------------------|--6-5---------5-----6-----|
----------------------------|--3-4------------------|--4-3---------3-----4-----|


  W                   S S E  Q    S S E  S S E     S S E  Q    H         
-------------------|----------------------------|-----------------------|
-------------------|----------------------------|-----------------------|
-------------------|----------------------------|-----------------------|
--0----------------|--0-1---------1-0----0-1----|--5-6------------------|
--0----------------|--0-1---------1-0----0-1----|--5-6------------------|
-------------------|----------------------------|--3-4------------------|


  S S E  Q    E  E  E  E     W                   S S E  Q    S S E  S S E   
--------------------------|-------------------|----------------------------|
--------------------------|-------------------|----------------------------|
--------------------------|-------------------|----------------------------|
--6-5---------5-----6-----|--0----------------|--0-1---------1-0----0-1----|
--6-5---------5-----6-----|--0----------------|--0-1---------1-0----0-1----|
--4-3---------3-----4-----|-------------------|----------------------------|


  S S E  Q    H           S S E  Q    E  E  E  E     W                 
-----------------------|--------------------------|-------------------|
-----------------------|--------------------------|-------------------|
-----------------------|--------------------------|-------------------|
--5-6------------------|--6-5---------5-----6-----|--0----------------|
--5-6------------------|--6-5---------5-----6-----|--0----------------|
--3-4------------------|--4-3---------3-----4-----|-------------------|


  S S E  Q    S S E  S S E     S S E  Q    H           S S E  Q    E  E  E  E   
----------------------------|-----------------------|--------------------------|
----------------------------|-----------------------|--------------------------|
----------------------------|-----------------------|--------------------------|
--0-1---------1-0----0-1----|--5-6------------------|--6-5---------5-----6-----|
--0-1---------1-0----0-1----|--5-6------------------|--6-5---------5-----6-----|
----------------------------|--3-4------------------|--4-3---------3-----4-----|


  W                   S S E  Q    S S E  S S E     S S E  Q    H         
-------------------|----------------------------|-----------------------|
-------------------|----------------------------|-----------------------|
-------------------|----------------------------|-----------------------|
--0----------------|--0-1---------1-0----0-1----|--5-6------------------|
--0----------------|--0-1---------1-0----0-1----|--5-6------------------|
-------------------|----------------------------|--3-4------------------|


  S S E  Q    E  E  E  E     W                   S S E  Q    S S E  S S E   
--------------------------|-------------------|----------------------------|
--------------------------|-------------------|----------------------------|
--------------------------|-------------------|----------------------------|
--6-5---------5-----6-----|--0----------------|--0-1---------1-0----0-1----|
--6-5---------5-----6-----|--0----------------|--0-1---------1-0----0-1----|
--4-3---------3-----4-----|-------------------|----------------------------|


  S S E  Q    H           S S E  Q    E  E  E  E     W                 
-----------------------|--------------------------|-------------------|
-----------------------|--------------------------|-------------------|
-----------------------|--------------------------|-------------------|
--5-6------------------|--6-5---------5-----6-----|--0----------------|
--5-6------------------|--6-5---------5-----6-----|--0----------------|
--3-4------------------|--4-3---------3-----4-----|-------------------|


  S S E  Q    S S E  S S E     S S E  Q    H           S S E  Q    E  E  E  E   
----------------------------|-----------------------|--------------------------|
----------------------------|-----------------------|--------------------------|
----------------------------|-----------------------|--------------------------|
--0-1---------1-0----0-1----|--5-6------------------|--6-5---------5-----6-----|
--0-1---------1-0----0-1----|--5-6------------------|--6-5---------5-----6-----|
----------------------------|--3-4------------------|--4-3---------3-----4-----|


  W                   S S E  Q    S S E  S S E     S S E  Q    H         
-------------------|----------------------------|-----------------------|
-------------------|----------------------------|-----------------------|
-------------------|----------------------------|-----------------------|
--0----------------|--0-1---------1-0----0-1----|--5-6------------------|
--0----------------|--0-1---------1-0----0-1----|--5-6------------------|
-------------------|----------------------------|--3-4------------------|


  S S E  Q    E  E  E  E     W                   S S E  Q    S S E  S S E   
--------------------------|-------------------|----------------------------|
--------------------------|-------------------|----------------------------|
--------------------------|-------------------|----------------------------|
--6-5---------5-----6-----|--0----------------|--0-1---------1-0----0-1----|
--6-5---------5-----6-----|--0----------------|--0-1---------1-0----0-1----|
--4-3---------3-----4-----|-------------------|----------------------------|


  S S E  Q    H           S S E  Q    E  E  E  E     W                 
-----------------------|--------------------------|-------------------|
-----------------------|--------------------------|-------------------|
-----------------------|--------------------------|-------------------|
--5-6------------------|--6-5---------5-----6-----|--0----------------|
--5-6------------------|--6-5---------5-----6-----|--0----------------|
--3-4------------------|--4-3---------3-----4-----|-------------------|


  S S E  Q    S S E  S S E     E.   T   T   E  S  S   Q     
----------------------------|------------------------------|
----------------------------|------12h-14h-15----14h-15----|
----------------------------|------------------------------|
--0-1---------1-0----0-1----|------------------------------|
--0-1---------1-0----0-1----|------------------------------|
----------------------------|------------------------------|


  E.   T   T   E  S  S   Q       E.   T   T   E  S  S   Q     
------------------------------|------------------------------|
------12h-14h-15----14h-15----|------12h-14h-15----12h-14----|
------------------------------|------------------------------|
------------------------------|------------------------------|
------------------------------|------------------------------|
------------------------------|------------------------------|


  S  S  S  S  E.   T  T  Q       E.   T   T   E  S  S   Q     
-------------12------12-------|------------------------------|
------------------11----14----|------12h-14h-15----14h-15----|
----14-11-14------------------|------------------------------|
------------------------------|------------------------------|
------------------------------|------------------------------|
------------------------------|------------------------------|


  E.   T   T   E  S  S   Q       E.   T   T   E  S  S   Q     
------------------------------|------------------------------|
------12h-14h-15----14h-15----|------12h-14h-15----12h-14----|
------------------------------|------------------------------|
------------------------------|------------------------------|
------------------------------|------------------------------|
------------------------------|------------------------------|


  S  S  S  S  E.   T  T  Q       E.   T   T   E  S  S   Q     
-------------12------12-------|------------------------------|
------------------11----14----|------12h-14h-15----14h-15----|
----14-11-14------------------|------------------------------|
------------------------------|------------------------------|
------------------------------|------------------------------|
------------------------------|------------------------------|


  E.   T   T   E  S  S   Q       E.   T   T   E  S  S   Q     
------------------------------|------------------------------|
------12h-14h-15----14h-15----|------12h-14h-15----12h-14----|
------------------------------|------------------------------|
------------------------------|------------------------------|
------------------------------|------------------------------|
------------------------------|------------------------------|


  S  S  S  S  E.   T  T  Q       E.   T   T   E  S  S   Q     
-------------12------12-------|------------------------------|
------------------11----14----|------12h-14h-15----14h-15----|
----14-11-14------------------|------------------------------|
------------------------------|------------------------------|
------------------------------|------------------------------|
------------------------------|------------------------------|


  E.   T   T   E  S  S   Q       E.   T   T   E  S  S   Q     
------------------------------|------------------------------|
------12h-14h-15----14h-15----|------12h-14h-15----12h-14----|
------------------------------|------------------------------|
------------------------------|------------------------------|
------------------------------|------------------------------|
------------------------------|------------------------------|


                                                             |---3---|   
  S  S  S  S  E.   T  T  Q       H        Q       Q     Q    E   E   E   
-------------12------12-------|----------------|-------12----L----------|
------------------11----14----|----------------|----------------14------|
----14-11-14------------------|----------------|------------------------|
------------------------------|----------------|--------------------15--|
------------------------------|----------------|------------------------|
------------------------------|----------------|------------------------|


   E   E  S  S  S  S  S  S  S  S     S E   T  T  H           H.            
--13--------------------13-15-17-|--18----16--------------|---------------|
------15--L----14-15-17----------|-----------17-15--------|--L------------|
------------16-------------------|------------------------|---------------|
---------------------------------|------------------------|---------------|
---------------------------------|------------------------|---------------|
---------------------------------|------------------------|---------------|


   7:3                                                                          
   7    7    7    7    7    7    7            |---3---|                         
   E.   E.   E.   E.   E.   E.   E.      Q    E   E   E   Q       H.            
----------------------14---16---17---|--15----L--16------------|---------------|
-------14---15---17------------------|---------------18--17----|--L------------|
--16---------------------------------|-------------------------|---------------|
-------------------------------------|-------------------------|---------------|
-------------------------------------|-------------------------|---------------|
-------------------------------------|-------------------------|---------------|


          |---3---|                      |---3---|                            
  E   E   E   E   E   E   E      E   E   E   E   E   E   E      H.            
-----------------------------|------------------------------|--12------------|
-----16--14--13--------------|------------------13--14--16--|----------------|
-----------------15--13--11--|------12--14--15--------------|----------------|
-----------------------------|--15--------------------------|----------------|
-----------------------------|------------------------------|----------------|
-----------------------------|------------------------------|----------------|


            |---3---|                                           
   H        E   E   E      H.              H        S  S  S  S  
-----------------------|----------------|-------------11-------|
--14--------L--13------|--13------------|--L--------L----14----|
-------------------15--|----------------|-------------------14-|
-----------------------|----------------|----------------------|
-----------------------|----------------|----------------------|
-----------------------|----------------|----------------------|


            |-----5-----|     |-----3----|                            |---3--|  
   H        S  S  S  S  S     E  E   S   S   H           H        E   S  S   S  
--12----------14-16-------|---------------------------|------------------------|
--------------------16-14-|--13-----13h-14p-13--------|--L--------L--12-12h-15-|
--------------------------|---------------------------|------------------------|
--------------------------|---------------------------|------------------------|
--------------------------|---------------------------|------------------------|
--------------------------|---------------------------|------------------------|


   Q.      Q.        H.               S  S  S  S  S  S  S  S  S  S  S  S  
------------------|---------------|-----------------------12-------------|
----------12------|--L------------|--13-12-12----------------15----13-12-|
--14--------------|---------------|-----------12-12-14----------14-------|
------------------|---------------|--------------------15----------------|
------------------|---------------|--------------------------------------|
------------------|---------------|--------------------------------------|


   |-----5-----|  |---3--|  |---3--|      |-3-|               
   S  S  S  S  S  E  E   E  E   E  E      E   S  E  H         
--------------------------------------|----------------------|
--12----------13-12-----12------------|--13--15-12--L--------|
-----14-14---------------------14-----|----------------------|
-----------14-------------------------|----------------------|
--------------------------------------|----------------------|
--------------------------------------|----------------------|


           |-----5-----|          |---5---| |--6--|  |--6--|                   
  H        S  S  S  S  S     Q    E   E   S S  S  S  S  S  S     H.            
-------------------------|-----------------------------------|----------------|
--L----------13-13-15----|-----------------------------------|----------------|
----------------------14-|--12-------------------------12-14-|--15------------|
-------------------------|-----------14--15-L-12-14-15-------|----------------|
-------------------------|-----------------------------------|----------------|
-------------------------|-----------------------------------|----------------|


                                 |---3--|  |---3--|   |-----5-----|  
  E   E   E   E   S  S  S  S     E  E   E  E   E  E   S  S  S  S  S  
-----------------------16-18-|--18-----16-----15--------------------|
-------------16--18-19-------|-----------------------18-16----------|
--L--17--18------------------|-----------------------------18-16-15-|
-----------------------------|--------------------------------------|
-----------------------------|--------------------------------------|
-----------------------------|--------------------------------------|


                           |---3---|                      |---3---|           
   H.              E   E   E   E   E   E   E      E   E   E   E   E   E   E   
----------------|-----------------------------|------------------------------|
----------------|-----------------------------|------------------------------|
--16------------|--L--15----------------------|--------------------------15--|
----------------|---------18--17--15----------|--------------15--17--18------|
----------------|---------------------18--16--|------16--18------------------|
----------------|-----------------------------|--19--------------------------|


   |--6--|  |--6--|                          |---3---|                   
   S  S  S  S  S  S  H           S  S  S  S  E   E   E   T  T  T  T  E   
-----------------16-18--------|--L-16-----------------------------------|
--------16-18-19--------------|-------19-18-16--------------------------|
--17-18-----------------------|-----------------18--16--16----16--------|
------------------------------|----------------------------18----18-17--|
------------------------------|-----------------------------------------|
------------------------------|-----------------------------------------|


  H.               S  S  S  S  S  S  S  S  S  S  S  S     H.            
---------------|-----------------15-16-15-------------|----------------|
---------------|-----------16-18----------18-16-------|----------------|
---------------|--16-17-19----------------------19-17-|--16------------|
--L------------|--------------------------------------|----------------|
---------------|--------------------------------------|----------------|
---------------|--------------------------------------|----------------|


   11:3                                  5:3                      
   11   11 11 11 11 11 11 11 11 11 11    5    5    5    5    5    
   S.   S. S. S. S. S. S. S. S. S. S.    E.   E.   E.   E.   E.   
-------------------------------------|---------------------------|
-------------------------------------|------------15-------------|
--15------------14----17-17-17----14-|--14---17-------------15---|
-------15-15-15----17----------17----|-----------------17--------|
-------------------------------------|---------------------------|
-------------------------------------|---------------------------|


            |--6--|  |--6--|                                  
   H        S  S  S  S  S  S     Q    S  S  S  S  S  S  S  S  
-----------------------------|-------------------------------|
-----------------------------|-------------------------------|
--14----------15-15-------15-|--14----L-------------14-15-17-|
--------------------17-17----|-------------14-15-17----------|
-----------------------------|----------17-------------------|
-----------------------------|-------------------------------|


   |-----5-----|                               |-----5-----|            
   S  S  S  S  S  H           H        Q       S  S  S  S  S  H         
-----------15-17-19--------|--L-------------|----17-19----16-----------|
--15-17-18-----------------|----------------|----------19--------------|
---------------------------|----------------|----------------18--------|
---------------------------|----------------|--------------------------|
---------------------------|----------------|--------------------------|
---------------------------|----------------|--------------------------|


   S  S  S  S  S  S  S  S  S  S  S  S     H        S  S  S  S  
--21-19-17----------------------------|-----------------------|
-----------21-19-17-------------------|-----------------------|
--------------------20-18-16----------|--------------------15-|
-----------------------------19-18-16-|--15----------17-18----|
--------------------------------------|-----------------------|
--------------------------------------|-----------------------|


   Q    E   Q.        S  S  S  S  S  S  S  S  Q     
-------------------|-------------------------------|
-------------------|-------------------------------|
-------------------|-------11----------13----10----|
--17-------17------|----13-------10-14----10-------|
-------------------|----------13-------------------|
-------------------|-------------------------------|


           |--3--|                                            
  Q    E   S  S  S  S  S  S  S     Q    E   S  S  S  S  S  S  
-------------------------------|--------------------------12-|
-------------------------------|-----------------12-13-15----|
--L-------10-10-10-10-10-10-10-|--10-------12-14-------------|
-------------------------------|-----------------------------|
-------------------------------|-----------------------------|
-------------------------------|-----------------------------|


                           |-----5-----|     |---3--|  |-----5----|        
   S  S  S  S  S  S  S  S  S  S  S  S  S     E  E   E  S S  S  S  S  Q     
--12-------------------------------------|--------------------------------|
-----13-12-------13-12-------------------|--------------------------------|
-----------12----------12----------12----|--------------------------------|
--------------15----------14----12----14-|--16-----16------16-16-16-16----|
-----------------------------14----------|--------------------------------|
-----------------------------------------|--------------------------------|


                  |--6-|  |--6--|  |-------7-------|   7   7   
  H.              S S  S  S  S  S  E   E   E   E   E   E   E   
---------------|----------------------------------------------|
---------------|------------------------------------------16--|
---------------|------------------------------16--17--19------|
--L------------|------16-16-16-16-16--18--19------------------|
---------------|----------------------------------------------|
---------------|----------------------------------------------|


                    |--3--|               |--3--|                         
   Q    S  S  S  S  S  S  S  E     Q.     S  S  S  Q       H        Q     
--------------------------------|-----------------------|----------------|
--19----------------------------|-----------------------|----------------|
----------19-------19-20--------|-----------------------|----------------|
-------------19-17-------20-19--|--L--------17-20-19----|--L-------------|
--------------------------------|-----------------------|----------------|
--------------------------------|-----------------------|----------------|


            |-----7-----|  7  7          |----5----|  |-----5-----|  
  H         S  S  S  S  S  S  S     Q    S S S  S  S  S  S  S  S  S  
--------------------------------|--------------------------12-13----|
--------------------13-11-------|-----------------15-12-13-------15-|
-----------10-12-12-------12----|--------------12-------------------|
-----------------------------12-|--14-------------------------------|
--------------------------------|-----------------------------------|
--------------------------------|-----------------------------------|


                                               |---3---|   |---3--|  |---3--|   
   T  T  T  T  E  H           H        Q       E   E   E   E  E   E  E   E  E   
-----13-12----12--L--------|----------------|-----12--12--12-----12-----12-----|
--13-------13--------------|----------------|----------------------------------|
---------------------------|----------------|----------------------------------|
---------------------------|----------------|----------------------------------|
---------------------------|----------------|----------------------------------|
---------------------------|----------------|----------------------------------|


   7  7  7  7  7  7  7                     |---3---|   |---3---|         
   S  S  S  S  S  S  S  Q    E.   T  T     E   E   E   E   E   E   Q     
--12-10----12-10-12-13-----------------|--------------12--13------12----|
--------12-----------------------------|--15--12--13----------15--------|
-----------------------13--------13-14-|--------------------------------|
---------------------------------------|--------------------------------|
---------------------------------------|--------------------------------|
---------------------------------------|--------------------------------|


               |--3--|  
  H        E   S  S  S  
--L--------------------|
--------------17-18-17-|
-----------------------|
-----------------------|
-----------------------|
-----------------------|


   |--6--|  |--6--|  |--6--|  |--6--|  |--6--|  |--6--|                       
   S  S  S  S  S  S  S  S  S  S  S  S  S  S  S  S  S  S     E  Q     E  Q     
-----------15-17----------15----------15-17----------15-|--18-------17-------|
--15-17-18-------17-17-18----15-17-18-------17-17-18----|--------------------|
--------------------------------------------------------|--------------------|
--------------------------------------------------------|--------------------|
--------------------------------------------------------|--------------------|
--------------------------------------------------------|--------------------|


   E  E   E  E   E  E      E  E   E  E   E  E      Q.      Q.      
-----------------------|--15-------------------|------------------|
--15------------15-----|---------17------------|----------17------|
---------14------------|----------------17-----|--14--------------|
-----------------------|-----------------------|------------------|
-----------------------|-----------------------|------------------|
-----------------------|-----------------------|------------------|


   E   E   E   E   E   E      E   E   E   E   S S  S S  
--------------------------|----------------------------|
--16----------------------|--------------13--13---13---|
------13--------------13--|----------12----------------|
--------------------------|--14--16--------------------|
----------16--15--16------|----------------------------|
--------------------------|----------------------------|


   segue into whatever song you like  
   W                                  
------------------------------------||
--13--------------------------------||
------------------------------------||
------------------------------------||
------------------------------------||
------------------------------------||




Duration Legend
---------------
W - whole
H - half
Q - quarter
E - 8th
S - 16th
T - 32nd
X - 64th
. - note dotted
|-n-|  - n-tuplets


Tablature Legend
----------------
L - tied note
x - dead note
g - grace note
(n) - ghost note
> - accentuded note
NH - natural harmonic
AH - artificial harmonic
TH - tapped harmonic
SH - semi harmonic
PH - pitch harmonic
h - hammer on
p - pull off
b - bend
br - bendRelease
pb - preBend
pbr - preBendRelease
brb - bendReleaseBend
\n/ - tremolo bar dip
\n - tremolo bar dive
-/n - tremolo bar Release up
/n\ - tremolo bar inverted dip
/n - tremolo bar return
-\n - tremolo bar Release down
S - shift slide
s - legato slide
/ -  slide into from below or out of upwards
\ -  slide into from above or out of downwards
~ - vibrato
W - wide vibrato
tr - trill
TP - tremolo picking
T - tapping
S - slap
P - pop
< - fade in
^ - brush up
v - brush down
Добавлено: 24.05.2012
Другие материалы по этой песне:
  • Аккорды и текст

Страница создана 24.05.2012
http://primanota.ru/frank-zappa/sinister-footwear-second-movement-chords.htm
Привет, Гость.
Предлагаем пройти революционный курс по гитаре.
Подарок от PrimaNota.Ru, забирай!