PrimaNota.ru - самый крупный в мире бесплатный архив песенных текстов, аккордов, табулатур и нот


Frank Zappa - G-spot Tornado - аккорды и текст, таба, видео

Регистрация Запомнить меня
Войти через:  Facebook Google Twitter Vk Yandex Mail.ru

Frank Zappa - G-spot Tornado - аккорды и текст, таба, видео

Печатать
Просмотров: 122
G-spot Tornado
Frank Zappa
E----------------------------------------------------|
B---12----10------------------12----10---------------|
G------11----9--11---------------11----9-------------|
D------------------12---9-----------------11--9------| line 1A
A------------------------------------------------12--|
E----------------------------------------------------|

E---------------------------------------------------|
B---12----10----------------------------------------|
G------11----9------------9-------------------------|
D---------------11--9--11---11--9--9--9--11---------| line 2A
A--------------------------------------------12--9--|
E---------------------------------------------------|


E---------------------------------------------------|
B------12--10----------------12----10---------------|
G---11--------9-----------------11----9-------------|
D---------------11--9--9-----------------11--9------| line 3A
A---------------------------------------------------|
E---------------------------------------------------|


E---------------------------------------------------|
B---12----10----------------------------------------|
G------11----9-----------9----------9---------------|
D---------------11--9-------11--9------11--9--------| line 4A
A---------------------------------------------------|
E---------------------------------------------------|


E-------------------------12--------------------------|
B---12--------10-------------12--10--------12---------|
G---------11-----9------------------11--------11--9---|
D------11---------------------------------------------| line 5A
A-----------------------------------------------------|
E-----------------------------------------------------|


E---------------------------------------------------|
B---12-------11-------------------------------------|
G------11--9----9-----------------------------------|
D-----------------11----9--9--11----9----9----------| line 6A
A--------------------12----------12---12------------|
E---------------------------------------------------|


E---------9--11-12--9------------------------------|
B---12----------------10------12----10-------------|
G------11------------------------11----9-----------|
D----------------------------------------11--9-----| line 7A
A----------------------------------------------12--|
E--------------------------------------------------|


E---------9--11-12--9--11-----9----------------------|
B---12---------------------12---10-------------------|
G------11--------------------------9--8--11----------|
D-------------------------------------------11-9-----| line 8A
A----------------------------------------------------|
E----------------------------------------------------|

E----------------------------------------------------|
B------12--10------------------12-----10-------------|
G---11--------9--------------------11-----9----------|
D----------------11--9-----------------------11--9---| line 9A
A-----------------------12---------------------------|
E----------------------------------------------------|


E---------------------------------------------------|
B---12-----10---------------------------------------|
G------11------9----------9-----------11--9---------|
D----------------11--9------11--9------------11-----| line 10A
A---------------------------------------------------|
E---------------------------------------------------|


E------------------------12----------------------------|
B--------------10------------12--10---------12---------|
G----------11-----9------------------11---------11--9--|
D---9--11----------------------------------------------| line 11A
A------------------------------------------------------|
E------------------------------------------------------|


E----------9-------------------------------------------|
B---12-------10----------------------------------------|
G------11-------9--------------------------------------|
D------------------11-----9--9--11-----9-----9---------| line 12A
A---------------------12------------12---12------------|
E------------------------------------------------------|


(Insert cymbal crash here !)


Tune 1B :
---------

Piano and mandolin.

First line is slightly different from line 1A. Lines 2 & 3 are the same as
for tune 1A. Last three lines are again slightly different from tune 1A.


E---------------------------------------------------|
B---12----10----10----------12----10----------------|
G------11----9-----9-----------11-----9-------------|
D---------------------11-----------------11--9------| line 1B
A---------------------------------------------------|
E---------------------------------------------------|


E----------------------------------------------------------------------------|
B---12----10-----------------------------------------------------------------|
G------11----9------------9--------------------------------------------------|
D---------------11--9--11---11--9--9--9--11--------- (line 2A) A------12--9--|
E----------------------------------------------------------------------------|


E---------------------------------------------------|
B------12--10----------------12----10---------------|
G---11--------9-----------------11----9-------------|
D---------------11--9--9-----------------11--9------| (line 3A)
A---------------------------------------------------|
E---------------------------------------------------|


E---------------------------------------------------|
B---12----10----------------------------------------|
G------11----9-----------9----------11--9-----------|
D---------------11--9-------11--9---------11--------| line 4B
A---------------------------------------------------|
E---------------------------------------------------|


E-------------------------12--------------------------|
B-------------10-------------12--10--------12---------|
G---------11-----9------------------11--------11--9---|
D---9--11---------------------------------------------| line 5B
A-----------------------------------------------------|
E-----------------------------------------------------|


E---------11--12---9----------------------------------|
B---12---------------10-------------------------------|
G------11---------------9--------------------8--9-----|
D-------------------------9--9--11-----9--9-----------| line 6B
A----------------------------------12-----------------|
E-----------------------------------------------------|


Quirky harmony bit
-------------------

Clarinet and Xylophone

Now it's basically the same tune again but played up two frets so
its in C#m instead of Bm. There is also a two part harmony going with
a few 'quirky' notes stuck in.

Play line 1B, then lines 2A-6A all moved up 2 frets and that will be
about right. If you want to be really picky, there is a note missed
out from line 6A (the third note - 9th fret G string).


Tune 1C
---------

Strings and flute. Back in Bm.


This is a note-for-note copy of tune 1A except that the
first line has a few different notes.


E------------------------------------------------------|
B---10--12-----10-----------------12----10-------------|
G-----------11----9--11--------------11----9-----------|
D-----------------------12--9----------------11--9-----| line 1C
A------------------------------------------------------|
E------------------------------------------------------|


Then repeat lines 2A to 12A

Tune 2
--------

Clarinet and trombone.

A new, slower tune is introduced here.


E------------------------------------------------------------|
B------------------------------------------------------------|
G------------------------------------------------------------|
D----------------------12-10-------------------------12--12--|
A------10-10----------------10--10-10--11--11----------12----|
E--10---------13-10-10-------------------10--11---10---------|


E-----------------------------------------------------|
B-----------------------------------------------------|
G-----------------------------------------------------|
D------------------------10-12----10----12-------12---|
A----11-10---------------------10----10---------------|
E--10-----13--12-8-10-10-------------------10-10------|


E-----------------------------------------------------|
B-----------------------------------------------------|
G-----------------------------------------------------|
D---10-10-10--------------------------10-12-----------|
A------------10------8----------10-10--------12-------|
E-----------------10----10-10-------------------------|

Tune 1D
--------

Glockenspiel


This variation is made up entirely of repeats of previous bits.
First play line 1B, then lines 2A - 6A.

(But miss out the third note in line 6A)

That tricky middle section
----------------------------

It would take me a long time to tab all of this part,
but it starts off like this :


E---------------------------------------------------|
B-------10--12--10--12--10--12--------10--12--10----|
G--9-11--------------------------9-11---------------|
D---------------------------------------------------|
A---------------------------------------------------|
E---------------------------------------------------|

E--------------9----------------9----------------------|
B-------10-12--------12--12--10---10-12-10-------------|
G--9-11------------------------------------------------|
D------------------------------------------------------|
A------------------------------------------------------|
E------------------------------------------------------|

E--------------------------------9--------------------|
B----------------10-12-10----------12---12-12--10-----|
G--9-11--9-9--11------------9-11----------------------|
D-----------------------------------------------------|
A-----------------------------------------------------|
E-----------------------------------------------------|

E----------9-------------14-14-12--------------------------|
B-------10----12----12------------14----12--12-------------|
G--9-11------------------------------14---------11--11--9--|
D----------------------------------------------------------|
A----------------------------------------------------------|
E----------------------------------------------------------|

etc etc

(N.B This whole tune is played in parallel 4ths. It's easier to
play the single notes as I've tabbed above, but if you want a
challenge try playing the two harmony parts on the lower strings.
Move the tune down an octave and then add a harmony part a 4th below.

It would start like this :


E-------------------------------------------|
B-------------------------------------------|
G------2-4--2--4--2--4-----2-4-2------2-4-6-|
D--2-4-2-4--2--4--2--4-2-4-2-4-2--2-4-2-4-6-| etc )
A--2-4-----------------2-4--------2-4-------|
E-------------------------------------------|


To get the hang of the rhythm here all I can suggest is practise
a lot ! After a lot of careful listening I was able to play along
up to this point - but it's hard to keep it going for the whole section!

It's made easier by the fact that the percussion beats out a steady
4/4 beat throughout this section to use as a reference.
Добавлено: 17.01.2014
Другие материалы по этой песне:
  • Аккорды и текст

Страница создана 19.03.2012
http://primanota.ru/frank-zappa/g-spot-tornado-chords.htm
Привет, Гость.
Предлагаем пройти революционный курс по гитаре.
Подарок от PrimaNota.Ru, забирай!