PrimaNota.ru - самый крупный в мире бесплатный архив песенных текстов, аккордов, табулатур и нот


Frank Zappa - Bow The Daddy - бас-таба, видео

Регистрация Запомнить меня
Войти через:  Facebook Google Twitter Vk Yandex Mail.ru

Frank Zappa - Bow The Daddy - бас-таба, видео

Печатать
Просмотров: 157
Artist: Frank Zappa

Album: We're Only In It For The Money

Song: Bow The DAddy


Tiny song... listen a few times to get some reithms... Have Fun!!!


G||--------------------------75---------|
D||--10-10-9-8-7---------7-5----5-57-9--|
A||--------------7-0-7-5----------------|
E||-------------------------------------|

G||-----------------------------7----------|
D||--10--10/9-8-7----------7-----5--5--79--|
A||---------------7-0-7-5---55-------------|
E||----------------------------------------|

G||--------------------------------------------------|
D||-10-10/9--9/10--10-12-14-15--15/14-13-12-------9--|
A||-----------------------------------------12-10----|
E||--------------------------------------------------|

G||---------------------------7-5--5--5-45----|
D||--10--10/9-8-7---------7-5-----------------|
A||---------------7-0-7-5------------------3--|
E||-------------------------------------------|

Tab by: Pedro Zappa
Добавлено: 22.03.2012
Другие материалы по этой песне:
  • Аккорды и текст

Страница создана 22.03.2012
http://primanota.ru/frank-zappa/bow-the-daddy-chords.htm
Привет, Гость.
Предлагаем пройти революционный курс по гитаре.
Подарок от PrimaNota.Ru, забирай!