PrimaNota.ru - самый крупный в мире бесплатный архив песенных текстов, аккордов, табулатур и нот


Francisco Tarrega - Etyde In Em - таба, видео

Регистрация Запомнить меня
Войти через:  Facebook Google Twitter Vk Yandex Mail.ru

Francisco Tarrega - Etyde In Em - таба, видео

Печатать
Просмотров: 227
Etyde in Em
                                          F. Tarrega
Key: 1/2 V__    = Barre over the first 3 strings at
                  5'th fret.
     ||
     |*         = Repeat bars
     |*
     ||

3/4                                          II
e|-0-----3-----3-----|-3-----2-----2-----|-5-----3-----2-----|
h|---0-----0-----0---|---1-----1-----1---|---4-----4-----4---|
g|-----0-----0-----0-|-----2-----2-----2-|-----2-----2-----2-|
d|-------------------|-------------------|-------------------|
a|-------------------|-0-----------------|-2-----------------|
E|-0-----------------|-------------------|-------------------|

e|-7-----7-----7-----|-0-----3-----3-----|-3-----2-----2-----|
h|---0-----0-----0---|---0-----0-----0---|---1-----1-----1---|
g|-----0-----0-----0-|-----0-----0-----0-|-----2-----2-----2-|
d|-------------------|-------------------|-------------------|
a|-------------------|-------------------|-0-----------------|
E|-0-----0-----0-----|-0-----------------|-------------------|

e|-5-----3-----2-----|-0-----<12>--------||
h|---4-----4-----4---|-------<12>--------||
g|-----2-----2-----2-|-------<12>--------*|
d|-------------------|-------------------*|
a|-2-----------------|-------------------||
E|-------------------|-0-----------------||

                        1/2 V____________
e||-0-----3-----7-----|-7-----5-----8-----|-2-----3-----5-----|
h||---0-----0-----0---|---5-----5-----5---|---1-----1-----3---|
g|*-----0-----0-----0-|-----5-----5-----5-|-----2-----2-----5-|
d|*-------------------|-------------------|-0-----------------|
a||-------------------|-------------------|-------------------|
E||-0-----------------|-5-----------------|-------------------|


e|-5-----3-----7-----|-0-----3-----3-----|-3-----2-----2-----|
h|---0-----0-----0---|---0-----0-----0---|---1-----1-----1---|
g|-----0-----0-----0-|-----0-----0-----0-|-----2-----2-----2-|
d|-------------------|-------------------|-------------------|
a|-------------------|-------------------|-0-----------------|
E|-3-----------------|-0-----------------|-------------------|

e|-5-----3-----2-----|-0-----<12>--------||
h|---4-----4-----4---|-------<12>--------||
g|-----2-----2-----2-|-------<12>--------*|
d|-------------------|-------------------*|
a|-2-----------------|-------------------||
E|-------------------|-0-----------------||

<----------------------------------------------------Max-Width 75--------->
Добавлено: 30.04.2012
Другие материалы по этой песне:
  • Аккорды и текст

Страница создана 24.04.2012
http://primanota.ru/francisco-tarrega/etyde-in-em-chords.htm
Привет, Гость.
Предлагаем пройти революционный курс по гитаре.
Подарок от PrimaNota.Ru, забирай!