PrimaNota.ru - самый крупный в мире бесплатный архив песенных текстов, аккордов, табулатур и нот


Four Year Strong - Men Are From Mars Women Are From Hell - текст песни, таба, бас-таба, видео

Регистрация Запомнить меня
Войти через:  Facebook Google Twitter Vk Yandex Mail.ru

Four Year Strong - Men Are From Mars Women Are From Hell - текст песни, таба, бас-таба, видео

Печатать
Просмотров: 243
e -------------------|
b -------------------|
g 777777777777777777-|
d 666666666666666666-|
a 555555555555555555-|
d -------------------|

e ---------------------------------------------|
b ---------------------------------------------|
g ---------------------------------------------|
d -------------------------------------7-------|
a -----------999-77*-555-777-9-7-5-7-9---------|
d -0-0-0-000-----------------------------------|

e ---------------------------------------------|
b ---------------------------------------------|
g ---------------------------------------------|
d ---------------------------------------------|
a -----------999-77*-555-777-----------7*------|
d -0-0-0-000------------------000-000----------|

e ---------------------------------------------|
b ---------------------------------------------|
g ---------------------------------------------|
d -------------------------------------7-------|
a -----------999-77*-555-777-9-7-5-7-9---------|
d -0-0-0-000-----------------------------------|

e ---------------------------------------------|
b ---------------------------------------------|
g ---------------------------------------------|
d -------------------------------------7-------|
a -----------999-77*-555-777-9-7-5-7-9---------|
d -0-0-0-000-----------------------------------|

e ------------|
b ------------|
g ------------|
d ------------|
a -9-7-5-7-9--|
d ------------|
Добавлено: 22.02.2012
Другие материалы по этой песне:

Страница создана 22.02.2012
http://primanota.ru/four-year-strong/men-are-from-mars-women-are-from-hell-chords.htm
Привет, Гость.
Предлагаем пройти революционный курс по гитаре.
Подарок от PrimaNota.Ru, забирай!