PrimaNota.ru - самый крупный в мире бесплатный архив песенных текстов, аккордов, табулатур и нот


Fleet Foxes - She Got Dressed - текст песни, таба, видео

Регистрация Запомнить меня
Войти через:  Facebook Google Twitter Vk Yandex Mail.ru

Fleet Foxes - She Got Dressed - текст песни, таба, видео

Печатать
Просмотров: 110
-------------------------------------------------------------------------------
                             SHE GOT DRESSED - Fleet Foxes
-------------------------------------------------------------------------------
Tabbed by: Evan Harris
E-mail: thomasthenook@gmail.com

Hello, I created an account on this site because the internet lacked this tab, it should 
be reasonably accurate. Have fun!

Tuning: Standard

Capo: 3rd Fret. The whole song, all parts folks.

Intro

Guitar 1

e|---------------------------------------------------------------------------|
B|-4-----6-3-----3-4-----6-3-----3-6-----6-5-----5-6-----6-5-----------------|
G|---0-------0-------0-------0-------0-------0-------0-------0---------------|
D|-----3-------3-------3-------3-------5-------5-------5-------5-------------|
A|---------------------------------------------------------------------------|
E|---------------------------------------------------------------------------|

He's made of sand, not flesh and not bone. He's as good as the seeds he's sewn.

e|-8-----8-6-------8-----8-6-------6------10-6-----6-------6-----------------|
B|---7-------5---5---8-------7---5---8---8-----8-----8---8-------------------|
G|-----8-------7-------8-------8-------7---------7-----7---------------------|
D|---------------------------------------------------------------------------|
A|---------------------------------------------------------------------------|
E|---------------------------------------------------------------------------|

But he loves you so, like know one else you know could do. Put your wedding dress on.

Verse

Guitar 1

I wont tab the exact strumming pattern, but I will give the chord progression.

e|-3-----1-----3-----1-----3-----1-----3-----3-----|
B|-3-----1-----3-----1-----3-----1-----3-----3-----|
G|-3-----2-----3-----2-----3-----2-----5-----4-----|
D|-5-----3-----5-----3-----5-----3-----5-----5-----|
A|-5-----3-----5-----3-----5-----3-----3-----5-----|
E|-3-----1-----3-----1-----3-----1-----3-----3-----|

Guitar 2

e|-------------------------------------------------|
B|-------------------------6-4---------------------|
G|-------------------3h5-------7-5~----------------|
D|-3h5---1h3-------------5-------------------------|
A|-----5-----1-0~----------------------------------|
E|-------------------------------------------------|

e|-------------------------------------------------|
B|-------------------------------------------------|
G|-------------------------------------------------|
D|-3h5---1h3---------------------------------------|
A|-----5-----1-0~----------------------------------|
E|-------------------1-1/3~------------------------|

Chorus

1 Guitar

e|---------------------------------------------------------------------------|
B|---------------------------------------------------------------------------|
G|-5-7-5~-5-7-5~-5-7-5-7~-7-7-7-7-7-7-7-7------------------------------------|
D|---------------------------------------------------------------------------|
A|---------------------------------------------------------------------------|
E|---------------------------------------------------------------------------|

She got. She, got dressed up. She got dressed up.

Solo

I'm sure this isn't exactly what is recorded, but this is what I play , and I think it 
sounds great.

e|---------------------------------------------------------------------------|
B|------------------------------------------------------4-6------------------|
G|----------------------0-------------------------0-3/5-----3\2~-------------|
D|------------------------3-1-0~-1-0----------0h1----------------------------|
A|-3-------3/5-----------------------3-1-0-0~--------------------------------|
E|---3-1-3-----5-3-5-5~------------------------------------------------------|

And the beat, it goes on...

e|---------------------------------------------------------------------------|
B|---------------------------------------------------------------------------|
G|-0-3p2-0----3p2-0-0~-------------------------------------------------------|
D|---------0~----------------------------------------------------------------|
A|---------------------------------------------------------------------------|
E|---------------------------------------------------------------------------|

Bridge

This one is a complex bit to learn by ear, there may be a few parts it could be.

e|---------------------------------------------------------------------------|
B|---------------------------------------------------------------------------|
G|-0-2-3-5~-3-2-0-2-3~-0-2-3-5~-3-5-7~-5-3-5~--------------------------------|
D|-1-3-5-7~-5-3-1-3-5~-1-3-5-7~-5-7-8~-7-5-7~--------------------------------|
A|---------------------------------------------------------------------------|
E|---------------------------------------------------------------------------|

Either a guitar or bass may continuously strum something like this...

e|---------------------------------------------------------------------------|
B|---------------------------------------------------------------------------|
G|---------------------------------------------------------------------------|
D|-3-3-3-3-3-3-3-3-3-3-3-3-3-3-3-3-3-3-3-3-3-3-3-3-3-3-3-3-3-3-3-3-3-3-3-3-3-|
A|-x-x-x-x-x-x-x-x-x-x-x-x-x-x-x-x-x-x-x-x-x-x-x-x-x-x-x-x-x-x-x-x-x-x-x-x-x-|
E|-1-1-1-1-1-1-1-1-1-1-1-1-1-1-1-1-1-1-1-1-1-1-1-1-1-1-1-1-1-1-1-1-1-1-1-1-1-|

And another guitar may play this...

e|---------------------------------------------------------------------------|
B|---------------------------------------------------------------------------|
G|---------------------------------------------------------------------------|
D|---------------------------------------------------------------------------|
A|-3-5-6-8~-6-5-3-5-6-8~-3-5-6-8-6-8-10~-8-6-8~------------------------------|
E|---------------------------------------------------------------------------|

Thanks in advance.

************************************

| /   slide up
| \   slide down
| h   hammer-on
| p   pull-off
| ~   vibrato
| +   harmonic
| x   Mute note
| b   Bend
| pb  Pre-bend
| br  Bend release
| pbr Pre-bend release
| brb Bend release bend

***********************************
Добавлено: 04.12.2013
Другие материалы по этой песне:
  • Аккорды и текст

Страница создана 04.12.2013
http://primanota.ru/fleet-foxes/she-got-dressed-chords.htm
Привет, Гость.
Предлагаем пройти революционный курс по гитаре.
Подарок от PrimaNota.Ru, забирай!