PrimaNota.ru - самый крупный в мире бесплатный архив песенных текстов, аккордов, табулатур и нот


Fleet Foxes - Sun It Rises - текст песни, таба, видео

Регистрация Запомнить меня
Войти через:  Facebook Google Twitter Vk Yandex Mail.ru

Fleet Foxes - Sun It Rises - текст песни, таба, видео

Печатать
Просмотров: 112
-------------------------------------------------------------------------------
	         "SUN IT RISES" off album "Fleet Foxes"(2008)
-------------------------------------------------------------------------------
Tabbed by: Les Gibson

There are two guitars for the most part: strumming and picking.
THE STRUMMED GUITAR HAS DROP D TUNING.


--INTRO (after vocal intro) (0:21):

Strummed guitar plays this repeated D major chord:

e|--x--|
B|--3--|
G|--2--|
D|--0--|
A|--0--|
D|--0--|

Picking guitar plays this (listen to song to get a sense of rhythm, cos its
quite tricky):

e|------------------------------------------|----------------------------------------|
B|------------------------------7-------10--|------------------------------7---------|
G|--7h9--9-----9p7---7------7h9------7--x---|--7h9--9-----9p7---7------7h9--------7--|
D|--7-------7------7-7--7---7-----9--7--7---|--7-------7------7-7--7---7-----9--7-7--|
A|------------------------------------------|----------------------------------------|
E|------------------------------------------|----------------------------------------|

e|------------------------------------------|----------------------------------------|
B|------------------------------7-------10--|-------7----------------------7---------|
G|--7h9--9-----9p7---7------7h9------7--x---|--7h9-----9--9p7---7------7h9--------7--|
D|--7-------7------7-7--7---7-----9--7--7---|--7-------7------7-7--7---7-----9--7-7--|
A|------------------------------------------|----------------------------------------|
E|------------------------------------------|----------------------------------------|


--VERSE 1 (0:47):

Strummed chords for verse (drop d tuning): 

D|00023x
Am/D|002210
Dsus2|000230
A6add4|x07779
D6/A|x07777


Am/D                Dsus2
The sun rises, over my head.
Am/D                  D
In the morning, when I


--Break similar to second half of the intro.


--VERSE 2 (1:13):

Am/D                  Dsus2
Hold me dear, into the night.
Am/D                         A6add4   D6/A  A6add4
Sun it will rise soon in the.


--ELECTIRC GUITAR BREAK: all on D chord. Acoustic parts here are the same as
        (1:38)           in the intro. Often at cross rhythms, so the
                         measures here cant be totally accurate.

e|-----------------------------------|--------------------------------------|
B|-----------------------7-------10--|---------------------------7----------|
G|--7h9--9--9p7--7--7h9-------7------|--7h9h11-9--9h11p9-7--7h9----------7--|
D|-------------------------9---------|------------------------------9--7----|
A|-----------------------------------|--------------------------------------|
E|-----------------------------------|--------------------------------------|

e|-------------------------------------------|-------------------------------------------|
B|-----7---------------------7---------------|-----7---------------------7---------------|
G|-7h9---9p7---7-----7---7h9---9p7---7-----7-|-7h9---9p7---7-----7---7h9---9p7---7-----7-|
D|-----------9---9-7---------------9---9-7---|-----------9---9-7---------------9---9-7---|
A|-------------------------------------------|-------------------------------------------|
E|-------------------------------------------|-------------------------------------------|

e|------------------------------------------------------|
B|------------------------------------------------------|
G|------------------------------------------------------|
D|-----7-10-7-7-10-7-7-10/12------7-10-7-7-10-7-7-10/12-|
A|-7h9------------------------7h9-----------------------|
E|------------------------------------------------------|

e|------------------------------------------------------|
B|------------------------------------------------------|
G|------------------------------------------------------|
D|-----7-10-7-7-10-7-7-10/12------7-10-7-7-10-7-7-10/12-|
A|-7h9------------------------7h9-----------------------|
E|------------------------------------------------------|

Another acoustic guitar comes in:

e|---------------------------------------------------|
B|---------------------------------------------------|
G|-----9---7---9-7-------------9---7---9-7-----------|electric
D|--7--------------10-9-----7--------------10--9/12--|
A|---------------------------------------------------|
E|---------------------------------------------------|
 |                                                   |                       
e|-----8---7---8-7-------------8---7---8-7-----------|
B|--8--------------10-------8--------------10----8---|
G|---------------------------------------------------|acoustic
D|---------------------------------------------------|
A|---------------------------------------------------|
E|---------------------------------------------------|


--VOCAL BREAK (2:17)

--OUTRO: clean electric guitar (2:42)

e|--------------------------------|------------------------------------|
B|--------------------------------|------------------------------------|
G|--9--------------9--------------|-11----------------11---------------| x2
D|----10-9p7-9-10----10-9p7-9-10--|----12-11p9-11-12-----12-11p9-11-12-|
A|--------------------------------|------------------------------------|
E|--------------------------------|------------------------------------|

e|--------------------------------|-----------------------|
B|--------------------------------|-----------------------|
G|--9--------------9--------------|-11----------------11--|
D|----10-9p7-9-10----10-9p7-9-10--|----12-11p9-11-12--12--|
A|--------------------------------|-----------------------|
E|--------------------------------|-----------------------|


Enjoy playing!




| /  slide up
| \  slide down
| h  hammer-on
| p  pull-off
| ~  vibrato
| +  harmonic
| x  Mute note
===============================================================================
Добавлено: 30.09.2013
Другие материалы по этой песне:
  • Аккорды и текст

Страница создана 30.09.2013
http://primanota.ru/fleet-foxes/sun-it-rises-chords.htm
Привет, Гость.
Предлагаем пройти революционный курс по гитаре.
Подарок от PrimaNota.Ru, забирай!