PrimaNota.ru - самый крупный в мире бесплатный архив песенных текстов, аккордов, табулатур и нот


Fleet Foxes - Crayon Angels - таба, видео

Регистрация Запомнить меня
Войти через:  Facebook Google Twitter Vk Yandex Mail.ru

Fleet Foxes - Crayon Angels - таба, видео

Печатать
Просмотров: 103
Авторы музыки: Judee Sill
Авторы текста: Judee Sill
tabbed from the black cab sessions version. original song by Judee Sill

e-------------------------------------2--------2-------------------|
B--0-------1--0-------1--0---------3---3-----3--3------1---1-------|
G-----------0----------0------------2---------0----------2---------|
D------0h2--------0h2------------0---0---0h2-----------2--2--------|
A-----------------------------0-2------------------0h2-------------|
E--3-3--------3-3--------3-3--------------------------------0-2----|


e---------------------------------------------------------------|
B--0--------1--0------1--0------1--0-----1--0-------------------|
G------------0---------0---------0--------0---------------------|
D------0h2---------0h2-------0h2------0h2-----------------------|
A---------------------------------------------------------------|
E--3-3---------3-3-------3-3-------3-3------3-2-0---------------|

pick through these chords simular to the intro

verse 1
e---------2--------------  ------2----------------------------------|
B---------3--1--0--------  ------3--1-0--0--1-1-0------1-0----------|
G---0-----2--0--0--------  ---0--2--0-0--2--2-2---------0-----------|
D---2-----0--2--0--------2x---2--0--2-0--1--2-2---0h2---------------|
A---2--------3--2--------  ---2-----3-2--2--0-----------------------|
E---0-----------3-3-2-0--  ---0-------3-------2-3--------3-3-3-2-0--|

crayon angel's songs are slightly out of tune, but im sure im not to blame
nothings happend but i think it will soon, so i sit here waiting for God and a train to 
astro plain

verse 2
e---------2--------------  ------2----------------------------------|
B---------3--1--0--------  ------3--1-0--0--1-1-0------1-0----------|
G---0-----2--0--0--------  ---0--2--0-0--2--2-2---------0-----------|
D---2-----0--2--0--------2x---2--0--2-0--1--2-2---0h2---------------|
A---2--------3--2--------  ---2-----3-2--2--0-----------------------|
E---0-----------3-3-2-0--  ---0-------3-------2-3--------3-3-3-2-0--|

magic rings i made have turned my finger green, and my mystic roses has die.
I guess reality is not as it seems, so i sit here waiting for truth and a ride to the 
side.


                     Bridge
e-------------------------------------2--------2-------------------|
B--0-------1--0-------1--0---------3---3-----3--3------1---1-------|
G-----------0----------0------------2---------0----------2---------|
D------0h2--------0h2------------0---0---0h2-----------2--2--------|
A-----------------------------0-2------------------0h2-------------|
E--3-3--------3-3--------3-3--------------------------------0-2----|

baaaah dada bada daaaaah

e--------------------------------------------------------------------------|
B--0--------1--0------1--0------1--0-----1--0------------------------------|
G------------0---------0---------0--------0--------------------------------|
D------0h2---------0h2-------0h2------0h2--------------------- everything--| 2x
A--------------------------------------------------------------------------|
E--3-3---------3-3-------3-3-------3-3------3-2-0--------------------------|

                     verse 3

e---------2--------------  ------2----------------------------------|
B---------3--1--0--------  ------3--1-0--0--1-1-0------1-0----------|
G---0-----2--0--0--------  ---0--2--0-0--2--2-2---------0-----------|
D---2-----0--2--0--------2x---2--0--2-0--1--2-2---0h2---------------|
A---2--------3--2--------  ---2-----3-2--2--0-----------------------|
E---0-----------3-3-2-0--  ---0-------3-------2-3--------3-3--------|

phony prophets stole the only light i knew, and the darnkness solfly screams
holy visions disappear from my view, but the angels come back and laugh in my dreams, i
what it means
Добавлено: 13.01.2014
Другие материалы по этой песне:
  • Аккорды и текст

Страница создана 13.01.2014
http://primanota.ru/fleet-foxes/crayon-angels-chords.htm
Привет, Гость.
Предлагаем пройти революционный курс по гитаре.
Подарок от PrimaNota.Ru, забирай!