PrimaNota.ru - самый крупный в мире бесплатный архив песенных текстов, аккордов, табулатур и нот


Fleet Foxes - Tiger Mountain Peasant Song - аккорды и текст, таба, видео

Регистрация Запомнить меня
Войти через:  Facebook Google Twitter Vk Yandex Mail.ru

Fleet Foxes - Tiger Mountain Peasant Song - аккорды и текст, таба, видео

Печатать
Просмотров: 403
Tiger Mountain Peasant Song
Fleet Foxes
Chords
D7/F#: 2x021x
F6: 1x323x
Gsus4: 3x001x
C/G: 332010

h = hammer on

-----

eb|-----------------------|
Bb|---1---1---0h1---1-----|
Gb|---2---2---0h2---2-----|
Db|-----2---2-----2---2---| x2
Ab|---0-------0-----------|
Eb|-----------------------|

Am   D7/F#   G   Em  x2

Am   D7/F#     G            Em
Wanderers this morning came by
Am       D7/F#    G               F  G    C
Where do they go, graceful in the morning light
   F  G   C
To banner fair
   F          G
To follow you softly in the cold mountain air

Am          D7/F#   G            Em
Through the forest, down to your grave
Am        D7/F#      G            F   G   C
Where the birds wait and the tall grasses wave
F    G  C
They do not
F        G
Know you anymore

G   Am   D7/F#   G   Em
Mooore
Am   D7/F#   G  
Mooore                           
F  G C   F  G C   F   G   G
Mooore

C    F6     G         C
Dear shadow alive and well
C           F6   G
How can the body die
    C       D7/F#                Gsus4 G
You tell me everything, anything true

Am   D7/F#    G         Em
Into town one morning I went
Am    D7/F#        G            F  G  C
Staggering through premonitions of my death
F G     C   F  G
I don't see anybody that dear to me

C    F6     G         C
Dear shadow alive and well
C           F6   G
How can the body die
    C       D7/F#                Gsus4 G
You tell me everything, anything true

Em  A
Jessie
C                 Bb     C/G
I don't know what I have done
Bb          C/G         Bb   C
I'm turning myself to a demon
C/G               Bb     C
I don't know what I have done
Bb          C/G         Bb   C
I'm turning myself to a demon

      Am        Bm/A      Am7 
eb|------------------------------------------|
Bb|---1----1----3----3----5----5----3--1--0--|
Gb|---2----2----4----4----5----5----4--2--0--|
Db|------2---2-----4---4-----5---5-----------|
Ab|---0---------0---------0---------0-----0--|
Eb|------------------------------------------|
      Laaadadada...
eb|------------------------------------------|
Bb|--0h1---1----3----3----5----5----3--1--0--|
Gb|--0h2---2----4----4----5----5----4--2--0--|
Db|------2---2-----4---4-----5---5-----------| Repeat
Ab|--0----------0---------0---------0-----0--|
Eb|------------------------------------------|

-----
Добавлено: 27.02.2014
Другие материалы по этой песне:

Страница создана 24.08.2013
http://primanota.ru/fleet-foxes/tiger-mountain-peasant-song-chords.htm
Привет, Гость.
Предлагаем пройти революционный курс по гитаре.
Подарок от PrimaNota.Ru, забирай!