PrimaNota.ru - самый крупный в мире бесплатный архив песенных текстов, аккордов, табулатур и нот


Faith No More - War Pigs - текст песни, таба, видео

Регистрация Запомнить меня
Войти через:  Facebook Google Twitter Vk Yandex Mail.ru

Faith No More - War Pigs - текст песни, таба, видео

Печатать
Просмотров: 139
Авторы музыки: Geezer Butler, Ozzy Osbourne, Bill Ward, Tony Iommi
Авторы текста: Geezer Butler
-------------------------------------------------------------------------------
                             War Pigs - Faith No More
-------------------------------------------------------------------------------
Tabbed by: Dreadface
Email: light_a_man_on_fire@hotmail.com
Tuning:EADGBe

| /  slide up
| \  slide down
| h  hammer-on
| p  pull-off
| ~  hold note
| +  harmonic
| x  mute note
| pm palm mute

Intro
e|-------------|---------|---------------------------------|
B|o------------|--------o|---------------------------------|
G|-------------|---------|---------------------------------|
D|----9-9-9-7--|-6--6-7--|-9-9-7---7-7-9----9-9-7--7-7-9---|
A|o-2-7-7-7s5~-|-7--7h7-o|-7-7s5~--5-5s7~---7-7s5--5-5s7~--|
E|--0----------|---------|---------------------------------|
              3X         

 
 Verse        Verse Fills
e|---------|---------|------------------|---|
B|o-------o|---------|------------------|---|
G|---------|-4p2p0---|------------------|-7-|
D|--7--9---|-------2-|------------------|-5-|
A|o-5--7--o|---------|-5757575757575757-|---|
E|---------|---------|------------------|---|
     10X  

  Pre-Chorus
e|-----------------3h4p3h4p3h4-|--------------------------------|
B|o----------------------------|------------------3h5p3h5p3h5--o|
G|--------7-6-5--4-------------|--------7-6-5--4----------------|
D|--7-9---5-4-3--2-------------|-7-9----5-4-3--2----------------|
A|o-5-7------------------------|-5-7---------------------------o|
E|-----------------------------|--------------------------------|



Chorus
e|------7-----------|---------------------------|
B|o-----8----------o|o-------------------------o|
G|------7-----------|---------------------------|
D|------------------|-------2p0---------2p0-----|
A|o----------------o|o-------------------------o|
E|-0000----0-3-0-3--|--0000-----3-0-0-0-----3---|
  | pm | 4X           | pm |    7X

Pre-Solo
e|-----------------3h4p3h4p3h4-|--------------------------------|
B|o----------------------------|------------------3h5p3h5p3h5--o|
G|--------7-6-5--4-------------|--------7-6-5--4----------------|
D|--7-9---5-4-3--2-------------|-7-9----5-4-3--2----------------|
A|o-5-7------------------------|-5-7---------------------------o|
E|-----------------------------|--------------------------------|


 1st Guitar Solo
e|---------------------|---------------|-----------|
B|---------------------|---------------|-----------|
G|---------------------|---------------|-----------|
D|-6h7p6--6------------|---------------|-6h76h76-6-|
A|-------7-7-5--5--5h7-|-7p5-5-5-7p5---|-----------|
E|-------------7-7-----|-------------7-|-----------|


e|----------------------------------|
B|----------------------------------| The rest of the solo is mostly 
G|----------------7h9-9b-----7h9-9b-| shredding and I havn't quite figured
D|-6-7-9p7h9--7h9--------7h9--------| it out yet so if you do e-mail it 
A|----------------------------------| to me.
E|----------------------------------|


 Pre-Verse
e|-----------------------------|
B|-----------------------------|
G|-----------------------------|
D|-9-9-7--7-7-9---9-9-7--7-7-9-|
A|-7-7s5--5-5s7---7-7s5--5-5s7-|
E|-----------------------------|



Verse        Verse Fills
e|---------|---------|------------------|---|
B|o-------o|---------|------------------|---|
G|---------|-4p2p0---|------------------|-7-|
D|--7--9---|-------2-|------------------|-5-|
A|o-5--7--o|---------|-5757575757575757-|---|
E|---------|---------|------------------|---|
     10X 

Pre-Chorus
e|-----------------3h43h43h4-|------------------------------|
B|o--------------------------|------------------3h53h53h5--o|
G|--------7-6-5--4-----------|--------7-6-5--4--------------|
D|--7-9---5-4-3--2-----------|-7-9----5-4-3--2--------------|
A|o-5-7----------------------|-5-7-------------------------o|
E|---------------------------|------------------------------|


Bridge
e|------------------------------------------------|\
B|------------------------------------------------| \
G|----7----7-----7------7----7-----7--------------|  \
D|--9----9-----9------9----9-----9-------9-----7--|   \
A|---------------------------------------7--9--5--|    \
E|-0----0-----------0----0------------------7-----|     \
                                                         \                
e|------------------------------------------------|      | Play Twice
B|------------------------------------------------|     /  
G|----7----7-----7------7----7-----7--------------|    /
D|--9----9-----9------9----9-----9-------9--12--9-|   /
A|---------------------------------------7--10--7-|  /
E|-0----0-----------0----0------------------------| /


e|---------------------------------------------------------------------|
B|---------------------------------------------------------------------|
G|----7----7----7-----7----7-----7-----7----7------7------7----7-----7-|   
D|--9----9----9-----9----9-----9-----9----9------9------9----9-----9---|
A|---------------------------------------------------------------------|
E|-0----0----------0----0-----------0----0-------------0----0----------|

e|---------------------------------------------------------------------|
B|---------------------------------------------------------------------|
G|----5----5----5-----5----5-----5-----3----3------3------3----3-----3-|   
D|--7----7----7-----7----7-----7-----5----5------5------5----5-----5---|
A|---------------------------------------------------------------------|
E|-5----5----------5----5-----------3----3-------------3----3----------|


e|----------------|
B|----------------|
G|----------------|
D|-4---3--3---4---|
A|-2---5--5---2---|
E|----------------|


Pre-Solo
e|-----------------------------|-------------------------------|
B|o----------------------------|------------------------------o|
G|-----------------------------|-------------------------------|
D|-----------------------------|-------------------------------|
A|o---9-10--9h10p9--5---5-5h7--|---9-10--9-10-12---9-9----5---o|
E|-0------------------7--------|-0---------------------7-------|


2nd Guitar Solo
e|--------------------------------------------|
B|--------------------------------------------|
G|------------9---7--9b--9b--9b-9-7--9-7---7--|
D|-9-9---9-12----------------------------9----|
A|--------------------------------------------|
E|--------------------------------------------|

I havn't figured out the middle part of this solo either, sorry for the trouble.

e|-----------------------------------------------------------------------|
B|-----------------------------------------------------------------------|
G|-----------------------------------------------------------------------|
D|-5-4---5-4---5-4---5-4---5-4----7-5-4---7-5-4---7-5-4---7-5-4---7-5-4--|
A|-----7-----7-----7-----7-----7-----------------------------------------|
E|-----------------------------------------------------------------------|

Out-Solo
e|-----------------------------|-------------------------------|
B|o----------------------------|------------------------------o|
G|-----------------------------|-------------------------------|
D|-----------------------------|-------------------------------|
A|o---9-10--9h10p9--5---5-5h7--|---9-10--9-10-12---9-9----5---o|
E|-0------------------7--------|-0---------------------7-------|


Outro
e|---------------------------------------------------------------------|
B|---------------------------------------------------------------------|
G|----7----7----7-----7----7-----7-----7----7------7------7----7-----7-|   
D|--9----9----9-----9----9-----9-----9----9------9------9----9-----9---|
A|---------------------------------------------------------------------|
E|-0----0----------0----0-----------0----0-------------0----0----------|


Ending 
e|----|
B|----|
G|----|
D|-7--| Just keep playing this last note till song ends. 
A|-5--| E-mail me with corrections or concerns thanks :)
E|----|



===============================================================================
Добавлено: 01.03.2012
Другие материалы по этой песне:

Страница создана 01.03.2012
http://primanota.ru/faith-no-more/war-pigs-chords.htm
Привет, Гость.
Предлагаем пройти революционный курс по гитаре.
Подарок от PrimaNota.Ru, забирай!