PrimaNota.ru - самый крупный в мире бесплатный архив песенных текстов, аккордов, табулатур и нот


Faith No More - The Real Thing - текст песни, таба, бас-таба, видео

Регистрация Запомнить меня
Войти через:  Facebook Google Twitter Vk Yandex Mail.ru

Faith No More - The Real Thing - текст песни, таба, бас-таба, видео

Печатать
Просмотров: 181
Авторы музыки: Roddy Bottum, Billy Gould
Авторы текста: Mike Patton, Billy Gould
The Real Thing: Faith No More
Standard Tune
Intro: *Volume Swell                   
|----------------------------------------------|
|----------------------------------------------|
|----------------------------------------------|
|-----------------------------2-2--------------|
|--/7------3*-----------------2-2--------------|
|-----------------------------0-0--------------|
|                  
|----------------------------------------------|
|----------------------------------------------|
|----------------------------------------------|
|-----------------------------2-2--------------|
|--/7------3*----5*-----------2-2--------------|
|-----------------------------0-0--------------|

|-------------------------------------------------|
|-------------------------------------------------|
|-------------------------------------------------|
|-----------------------------2-2--2-2--2-2--2-2--|
|--/7------3*----5*-----------2-2--2-2--2-2--2-2--|
|-----------------------------0-0--0-0--0-0--0-0--|

All Palm Muted Notes: Gallop Notes
|----------------------------------------|
|----------------------------------------|
|----------------------------------------|
|----------------------------------------|x2
|----------------------------------------|
|-000-000-000-000-x7--00000000-00000000--|


Verse

|---------------------------------|
|---------------------------------|
|--7\\9--9------------------------|
|--7\\9--9------------------------|x3
|--5\\7--7------------------------|
|-----------000-000-000-000-------|

|---------------------------------|
|---------------------------------|
|---------------------------------|
|--4\\5--5------------------------|
|--5\\7--7------------------------|
|-----------000-000-000-000-------|

|---------------------------------|
|---------------------------------|
|--4\\5--5-------5----------------|
|--4\\5--5----5----5--4-----------|x3
|--2\\3--3----3-------------------|

|---------------------------------|
|---------------------------------|
|--4\\5--5------7-----------------|
|--4\\5--5------7-----------------|
|--2\\3--3------5-----------------|
|---------------------------------|

Chorus
|---------------------------------|
|---------------------------------|
|--7\\9--9------------------------|
|--7\\9--9------------------------|x3
|--5\\7--7------------------------|
|-----------000-000-000-000-------|

|---------------------------------|
|---------------------------------|
|---------------------------------|
|--4\\5--5------------------------|
|--5\\7--7------------------------|
|-----------000-000-000-000-------|

|---------------------------------|
|---------------------------------|
|--4\\5--5-------5----------------|x3
|--4\\5--5----5----5--4-----------|
|--2\\3--3----3-------------------|
|---------------------------------|

|---------------------------------|
|---------------------------------|
|--4\\5--5------7-----------------|
|--4\\5--5------7-----------------|
|--2\\3--3------5-----------------|
|---------------------------------|



|-------------------------------------|
|-------------------------------------|
|--9-------9-------9-10-7-------9-10--|
|--9-------9-------9-10-7-------9-10--|x3
|--7-------7-------7-8--5-------7-8---|
|-----0-0-----0-0----------0-0--------|
|
|-------------------------------------|
|-------------------------------------|
|--9-------9-------9-10-7-------------|
|--9-------9-------9-10-7-------6-7---|
|--7-------7-------7-8--5-------7-8---|
|-----0-0-----0-0----------0-0--------|

Repeat This Whole Part Twice 
|-------------------------------------|
|-------------------------------------|
|----------9-------9-10-7-------9-10--|
|--6-------9-------9-10-7-------9-10--|
|--7-------7-------7-8--5-------7-8---|
|-----0-0-----0-0----------0-0--------|
|
|-------------------------------------|
|-------------------------------------|
|--9-------9-------9-10-7-------9-10--|
|--9-------9-------9-10-7-------9-10--|x2
|--7-------7-------7-8--5-------7-8---|
|-----0-0-----0-0----------0-0--------|
|
|-------------------------------------|
|-------------------------------------|
|--9-------9-------9-10-7-------------|
|--9-------9-------9-10-7-------6-7---|
|--7-------7-------7-8--5-------7-8---|
|-----0-0-----0-0----------0-0--------|


|-------------------------------------|
|-------------------------------------|
|-------------------------------------|
|--6-------6-------6-7-4--------6-7---|x4
|--7-------7-------7-8-5--------7-8---|
|-----0-0-----0-0----------0-0--------|

let ring
|--------------|
|--------------|
|--------------|
|-6------------|
|-7------------|
|--------------|


Some Chords Are Strummed After This
Part, But I Don't Know Them Yet.
So Thats Basically It Apart From The
Chords Near The End Which I Think Are
Just Some Off The Power Cords Used In
The Chorus. Just repeat The Intro And 
Chorus And That Chord Bit And Thats
Pretty Much It.
Добавлено: 22.06.2012
Другие материалы по этой песне:

Страница создана 29.03.2012
http://primanota.ru/faith-no-more/the-real-thing-chords.htm
Привет, Гость.
Предлагаем пройти революционный курс по гитаре.
Подарок от PrimaNota.Ru, забирай!