PrimaNota.ru - самый крупный в мире бесплатный архив песенных текстов, аккордов, табулатур и нот


Faith No More - Jim - таба, видео

Регистрация Запомнить меня
Войти через:  Facebook Google Twitter Vk Yandex Mail.ru

Faith No More - Jim - таба, видео

Печатать
Просмотров: 115
"Jim"
 by
Faith No More (although I think only "Jim" had anything to do with it)
from the album
"We Care a Lot"
 
This is a cool classical-ish thing off their first album.  Most of the
song is based upon picking notes in the C, F, G, and Am chords...
 
~ in this tab means let the note ring while you play the other notes.
 
e------0-3------0-3-----1-0--------------------------------
B--1-3------1-3-------3~~~~~3-1-0--1~~~~~~~----------------
G------0--------0---------0----------2-0-------------------
D--------2--------2---3~~~~~~-2~~~-------3-2h3p2p0---------
A--3~~~~~~~~3~~~~~~~---------------3~~~~~~~~~~~~~~~3-2-----
E----------------------------------------------------------
 
e------0-3------0-3-----1-0--------------------------------
B--1-3------1-3-------3~~~~~3-1-0--1~~~~~~~----------------
G------0--------0---------0----------2-0-------------------
D--------2--------2---3~~~~~~-2~~~-------3-2h3p2p0---------
A--3~~~~~~~~3~~~~~~~---------------3~~~~~~~~~~~~~~~3-2-----
E----------------------------------------------------------
 
e------------0-----------1-0~~~~~~~~~3-1-------------------
B--1~~~~~~~~~--3~~~~~~~~~----1-----------0-----------------
G----0-----------0-------------0---0-------0---------------
D------2---2-------0---0---------2-----------0---0---------
A--3~~~~~3-----------2-----3~~~~~~~~~----------2-----------
E--------------3~~~~~~~~~--------------3-------------------
 
e--1-0---------0-----------------------------------0-------
B------3-1-0-----3-1-0-----3-1-0-----0-1~~~~~~~~~~-1-------
G------------2---------2-0-------2-0---------------0-------
D--3~~~~~~~~~~-------------------------2-3-2h3p2p0-2-------
A--------------3~~~~~~~~~~-2~~~~~~~2~~-------------3-------
E----------------------------------------------------------
 
e----------------------------------------------------------
B--1~~~~~~~~~1-3~~~~~~-----1-3-1h3p1p0---0-1~~~~~~~~-0-----
G----2-----------2---------------------2-----2-------------
D------3---3-------3---------------------------2---2-------
A--------3-----------3-0-2-3~~~~~~~~~~~~~~-0~~~~~0---------
E--1~~~~~~~~---3~~~~~~-------------------------------------
 
e--------------------------------------------------------------
B--1~~~~~~~~~1-3~~~~~~-----1-3-1h3p1p0---0-1~~~~~~~~~~~~~~~~~~-
G----2-----------2---------------------2-----2-0---------------
D------3---3-------3-----------------------------3-2h3p2p0-----
A--------3-----------3-0-2-3~~~~~~~~~~~~~~-3~~~~~~~~~------3-2-
E--1~~~~~~~~---3~~~~~~-----------------------------------------
 
e------0-3------0-3-----1-0--------------------------------
B--1-3------1-3-------3~~~~~3-1-0--1~~~~~~~----------------
G------0--------0---------0----------2-0-------------------
D--------2--------2---3~~~~~~-2~~~-------3-2h3p2p0---------
A--3~~~~~~~~3~~~~~~~---------------3~~~~~~~~~~~~~~~3-2-----
E----------------------------------------------------------
 
e------0-3------0~~-0-1-3~~~~~--
B--1-3------1-3---3-------------
G------0--------0~~-------------
D--------2--------------2~~~~~--
A--3~~~~~~~~3~~~~~~~------------
E-------------------------------
 
e----1-0-------------------------------0--
B--3~~~~~3---0-1~~~~~~~----------------1--
G------0---0-----2-0-------------------0--
D--3~~~~~~-----------3-2h3p2p0---------2--
A--------------3~~~~~~~~~~~~~~~3-2-0-2-3--
E-----------------------------------------
 
Well...that's my interpretation (and all my own work)...
 
Feel free to contact me with any feedback at rbackofen@attbi.com

     
Добавлено: 22.09.2013
Другие материалы по этой песне:

Страница создана 14.06.2012
http://primanota.ru/faith-no-more/jim-chords.htm
Привет, Гость.
Предлагаем пройти революционный курс по гитаре.
Подарок от PrimaNota.Ru, забирай!