PrimaNota.ru - самый крупный в мире бесплатный архив песенных текстов, аккордов, табулатур и нот


Faith No More - The Morning After - текст песни, таба, бас-таба, видео

Регистрация Запомнить меня
Войти через:  Facebook Google Twitter Vk Yandex Mail.ru

Faith No More - The Morning After - текст песни, таба, бас-таба, видео

Печатать
Просмотров: 122
Авторы музыки: Roddy Bottum, Jim Martin, Billy Gould
Авторы текста: Mike Patton
faith no more
the morning after
album:the real thing.
transcribed by carltontrain@blueyonder .co.uk

after noticing there was no tab for this little number on the web i decided to
have ago. this is my first crack at tab so hope it's ok


intro & verse

E-----0-----0-----|------------0-------|
B------0-----0----|-----5----------0---|
G-------------0---|-------7------5---0-|
D--2-----2-----0--|--0------0----------|
A-----------------|--------------------|
E-----------------|--------------------|X8

Awakened by the sunlight..............


E----0-----0----|------------|-----------------------------------------|
B-----0-----0---|--7--7-\--9-|-----------------------------------------|
G------------0--|--7--7-\--9-|-------------------------1-1-1----1-1-1--|
D--2----2-----0-|--7--7-\--9-|-7--\--9-9-9----9-9-9----2-2-2----2-2-2--|
A---------------|--5--5-\--7-|-7--\--9-9-9----9-9-9----2-2-2----2-2-2--|
E---------------|------------|-5--\--7-7-7----7-7-7----0-0-0----0-0-0--|
                 
                   or am i dead?   yesterday's forgotten the morning =
after


E----------------------------------------------------|
B-----------------------------------------9/7---9/7--|
G--------------------------1-1-1-1-1-1----9/7---9/7--|
D--7--\--9-9-9----9-9-9----2-2-2-2-2-2----9/7---9/7--|
A--7--\--9-9-9----9-9-9----2-2-2-2-2-2----7/5---7/5--|
E--5--\--7-7-7----7-7-7----0-0-0-0-0-0--0------------|
        
      i can taste you, i can ....


then back to intro verse bit


E--------------------------------------------------------
B--7-7-\--9--2--4-4-4-4-4-4-4-4--------------------------
G--7-7-\--9--2--4-4-4-4-4-4-4-4--------------------------
D--7-7-\--9--2--4-4-4-4-4-4-4-4--------------------------
A--5-5-\--7--0--2-2-2-2-2-2-2-2--------------------------
E--------------------------------------------------------
               
                if i could just lay down to rest.........



E-------------------------------------------------------
B------5-----4-----7-----9------5-----4-----7-7--9------
G------5-----4-----7-----9------5-----4-----7-7--9------
D------5-----4-----7-----9------5-----4-----7-7--9------
A------3-----2-----5-----7------3-----2-----5-5--7------
E--0-0---0-0---0-0---0-0---0-0----0-0---0-0-------------

  p.m open e string

 if i am dead, how can i feel such love?



E-----------------|-----------------|-------------3-2-|-------------3-2-
B-------0-----3-1-|-------0-----3-1-|---0---3---------|---0---3---------
G---0-----0-------|---0-----0-------|-----0---0-------|-----0---0-------
D-----2-----2-----|-----2-----2-----|-2---------0-----|-2---------0-----
A-3---------------|-3---------------|-----------------|-----------------
E-----------------|-----------------|-----------------|-----------------

 don't know what you call this bit but big Jim uses distortion here and
it sounds pretty cool.


E----------------------    ------------------
B----------------------    --7-7--9----------
G--1-1-1-1-------------    --7-7--9----------
D--2-2-2-2-------------    --7-7--9----------
A--2-2-2-2-------------    --5-5--7----------
E--0-0-0-0-------------    ------------------ 
   p.m.................    splice us together 
 is this my blood......



E-------------------------------------------------------------------
B--2--4-4-4--4-4-4----------------2--4-4-4--4-4-4-------------------
G--2--4-4-4--4-4-4--1-1-1--1-1-1--2--4-4-4--4-4-4-------1--3--4--6--
D--2--4-4-4--4-4-4--2-2-2--2-2-2--2--4-4-4--4-4-4-------2--4--5--7--
A--0--2-2-2--2-2-2--2-2-2--2-2-2--0--2-2-2--2-2-2-------2--4--5--7--
E-------------------0-0-0--0-0-0------------------------0--2--3--5--
  i remember loving you so much..................
                                                       si-es-ta?


E--------------------------------|----------
B--------------------------------|----------
G--88-9--9---88-9--9-------------|--1-------
D--99-10-10--99-10-10------------|--2-------
A--99-10-10--99-10-10------------|--2-------
E--77-8--8---77-8--8-------------|--0-------

  i am thisty for my sleep.....




i carlton train do hereby solemnly swear that this is all my own work
ages it took too, so i hope that some sucker out there enjoys it. 

     
Добавлено: 05.08.2013
Другие материалы по этой песне:

Страница создана 29.04.2012
http://primanota.ru/faith-no-more/the-morning-after-chords.htm
Привет, Гость.
Предлагаем пройти революционный курс по гитаре.
Подарок от PrimaNota.Ru, забирай!