PrimaNota.ru - самый крупный в мире бесплатный архив песенных текстов, аккордов, табулатур и нот


Exies - Lay Your Money Down - текст песни, таба, видео

Регистрация Запомнить меня
Войти через:  Facebook Google Twitter Vk Yandex Mail.ru

Exies - Lay Your Money Down - текст песни, таба, видео

Печатать
Просмотров: 156
guitar 1    x4
d(-------------------------)
a(-------------------------)
f(--6/7-77-6/7-77-7/9-10-6-)
c(--6/7-77-6/7-77-7/9-10-6-)
g(--4/5-55-4/5-55-5/7-8--4-)
C(-------------------------)

guitar 2
d(-----)
a(-----)
f(-----)
c(--0--)
g(--0--)
C(--0--)

both guitars   x4
d(-------------------------)
a(-------------------------)
f(--6/7-77-6/7-77-7/9-10-6-)
c(--6/7-77-6/7-77-7/9-10-6-)
g(--4/5-55-4/5-55-5/7-8--4-)
C(-------------------------)

x12   
d(------------------------)
a(------------------------)
f(--6/7-------------------)
c(--6/7-10/7-8-6-6-6-5555-)
g(--4/5-10/7-8-6-6-6-5555-)
C(------10/7-8-6-6-6-5555-)

d(--------------33333333-----------33333333-)
a(--------------33333333-----------33333333-)
f(------------------------------------------)
c(--7h8-8-5-8/5----------3h5-5-3-5----------)
g(--7h8-8-5-8/5----------3h5-5-3-5----------)
C(--7h8-8-5-8/5----------3h5-5-3-5----------)

d(--------------33333333------------------------)
a(--------------33333333------------------------)
f(----------------------------------------------)
c(--7h8-8-5-8/5----------3h5-5-3-5-pick scratch-)
g(--7h8-8-5-8/5----------3h5-5-3-5-pick scratch-)
C(--7h8-8-5-8/5----------3h5-5-3-5-pick scratch-)

x2
d(-----------------------------------------------)
a(-----------------------------------------------)
f(------------------------------------------5555-)
c(--7h8-8-5-8/5-7h8-8-7-555-3h5-5-3-5-55-55-5555-)
g(--7h8-8-5-8/5-7h8-8-7-555-3h5-5-3-5-55-55-3333-)
C(--7h8-8-5-8/5-7h8-8-7-555-3h5-5-3-5-55-55------)

d(----------------------)
a(----------------------)
f(----------------------)
c(--5/7/5-55-5/7/5/3-33-)
g(--5/7/5-55-5/7/5/3-33-)
C(--5/7/5-55-5/7/5/3-33-)

x8
d(------------------------)
a(------------------------)
f(--6/7-------------------)
c(--6/7-10/7-8-6-6-6-5555-)
g(--4/5-10/7-8-6-6-6-5555-)
C(------10/7-8-6-6-6-5555-)

d(--------------33333333-----------33333333-)
a(--------------33333333-----------33333333-)
f(------------------------------------------)
c(--7h8-8-5-8/5----------3h5-5-3-5----------)
g(--7h8-8-5-8/5----------3h5-5-3-5----------)
C(--7h8-8-5-8/5----------3h5-5-3-5----------)

d(--------------33333333------------------------)
a(--------------33333333------------------------)
f(----------------------------------------------)
c(--7h8-8-5-8/5----------3h5-5-3-5-pick scratch-)
g(--7h8-8-5-8/5----------3h5-5-3-5-pick scratch-)
C(--7h8-8-5-8/5----------3h5-5-3-5-pick scratch-)

x4
d(-----------------------------------------------)
a(-----------------------------------------------)
f(------------------------------------------5555-)
c(--7h8-8-5-8/5-7h8-8-7-555-3h5-5-3-5-55-55-5555-)
g(--7h8-8-5-8/5-7h8-8-7-555-3h5-5-3-5-55-55-3333-)
C(--7h8-8-5-8/5-7h8-8-7-555-3h5-5-3-5-55-55------)

guitar 1    x8
d(-------------------------)
a(-------------------------)
f(--6/7-77-6/7-77-7/9-10-6-)
c(--6/7-77-6/7-77-7/9-10-6-)
g(--4/5-55-4/5-55-5/7-8--4-)
C(-------------------------)

guitar 2  x2
d(-----)
a(-----)
f(-----)
c(--0--)
g(--0--)
C(--0--)

both guitars   x4
d(-------------------------)
a(-------------------------)
f(--6/7-77-6/7-77-7/9-10-6-)
c(--6/7-77-6/7-77-7/9-10-6-)
g(--4/5-55-4/5-55-5/7-8--4-)
C(-------------------------)

x8
d(-----------------------------------------------)
a(-----------------------------------------------)
f(------------------------------------------5555-)
c(--7h8-8-5-8/5-7h8-8-7-555-3h5-5-3-5-55-55-5555-)
g(--7h8-8-5-8/5-7h8-8-7-555-3h5-5-3-5-55-55-3333-)
C(--7h8-8-5-8/5-7h8-8-7-555-3h5-5-3-5-55-55------)

x3
d(------------------------)
a(------------------------)
f(--6/7-------------------)
c(--6/7-10/7-8-6-6-6-5555-)
g(--4/5-10/7-8-6-6-6-5555-)
C(------10/7-8-6-6-6-5555-)
Добавлено: 27.02.2012
Другие материалы по этой песне:
  • Аккорды и текст

Страница создана 27.02.2012
http://primanota.ru/exies/lay-your-money-down-chords.htm
Привет, Гость.
Предлагаем пройти революционный курс по гитаре.
Подарок от PrimaNota.Ru, забирай!