PrimaNota.ru - самый крупный в мире бесплатный архив песенных текстов, аккордов, табулатур и нот


Exies - My Ordinary World - текст песни, таба, видео

Регистрация Запомнить меня
Войти через:  Facebook Google Twitter Vk Yandex Mail.ru

Exies - My Ordinary World - текст песни, таба, видео

Печатать
Просмотров: 257
verse-1  x5
d(------------------------------------)
a(------------------------------------)
f(------4--------2--------------------)
c(------------------------5-----2-----)
g(--222---22-000---00-------------2-0-)
C(--------------------555---222-------)

pre-chorus
d(------------------------------------------)
a(------------------------------------------)
f(--7-7-77777-7-7-77777-6-6-66666-4-4-44444-)
c(--7-7-77777-7-7-77777-6-6-66666-4-4-44444-)
g(--5-5-55555-5-5-55555-4-4-44444-2-2-22222-)
C(------------------------------------------)

chorus
d(--------------------------------------------------------------)
a(--------------------------------------------------------------)
f(--------------------------------------------------------------)
c(--9-7-9-9-99999-5-5-55555-9-7-9-9-77777-775-5-55-44444444-9-7-)
g(--9-7-9-9-99999-5-5-55555-9-7-9-9-77777-775-5-55-44444444-9-7-)
C(--9-7-9-9-99999-5-5-55555-9-7-9-9-77777-775-5-55-44444444-9-7-)

chorus continued
d(---------------------------------------------------)
a(---------------------------------------------------)
f(-------------------------------------------------7-)
c(--9-7-9-9-99999-5-5-55555-9-7-9-9-77777-775-5-55-7-)
g(--9-7-9-9-99999-5-5-55555-9-7-9-9-77777-775-5-55-5-)
C(--9-7-9-9-99999-5-5-55555-9-7-9-9-77777-775-5-55---)

verse-2  x5
d(------------------------------------)
a(------------------------------------)
f(------4--------2--------------------)
c(------------------------5-----2-----)
g(--222---22-000---00-------------2-0-)
C(--------------------555---222-------)

second verse(lead)  x5
d(-------------)
a(--7------7---)
f(----99-7---6-)
c(-------------)
g(-------------)
C(-------------)

last chord on lead
d(-----)
a(--10-)
f(-----)
c(-----)
g(-----)
C(-----)

pre-chorus
d(------------------------------------------)
a(------------------------------------------)
f(--7-7-77777-7-7-77777-6-6-66666-4-4-44444-)
c(--7-7-77777-7-7-77777-6-6-66666-4-4-44444-)
g(--5-5-55555-5-5-55555-4-4-44444-2-2-22222-)
C(------------------------------------------)

chorus
d(--------------------------------------------------------------)
a(--------------------------------------------------------------)
f(--------------------------------------------------------------)
c(--9-7-9-9-99999-5-5-55555-9-7-9-9-77777-775-5-55-44444444-9-7-)
g(--9-7-9-9-99999-5-5-55555-9-7-9-9-77777-775-5-55-44444444-9-7-)
C(--9-7-9-9-99999-5-5-55555-9-7-9-9-77777-775-5-55-44444444-9-7-)

chorus continued
d(---------------------------------------------------)
a(---------------------------------------------------)
f(-------------------------------------------------7-)
c(--9-7-9-9-99999-5-5-55555-9-7-9-9-77777-775-5-55-7-)
g(--9-7-9-9-99999-5-5-55555-9-7-9-9-77777-775-5-55-5-)
C(--9-7-9-9-99999-5-5-55555-9-7-9-9-77777-775-5-55---)

bridge
d(---------------------------------)
a(---------------------------------)
f(--7-7-7777-77-11-11-11111111-119-)
c(--7-7-7777-77-11-11-11111111-119-)
g(--5-5-5555-55-9--9--9-9-9-9--9-7-)
C(---------------------------------)

bridge continued
d(--------------------------)
a(--------------------------)
f(--7-7-7777-77-4-4-4444-46-)
c(--7-7-7777-77-4-4-4444-46-)
g(--5-5-5555-55-2-2-2222-24-)
C(--------------------------)

bridge continued
d(---------------------------------)
a(---------------------------------)
f(--7-7-7777-77-11-11-11111111-119-)
c(--7-7-7777-77-11-11-11111111-119-)
g(--5-5-5555-55-9--9--9-9-9-9--9-7-)
C(---------------------------------)

lead for the bridge section above
d(-----------------------)
a(-----------------------)
f(-----------------------)
c(--7/9-9/11-11/12-12/14-)
g(-----------------------)
C(-----------------------)

bridge continued
d(-----------------------)
a(-----------------------)
f(--7-7-7777-77-9-9-9-99-)
c(--7-7-7777-77-9-9-9-99-)
g(--5-5-5555-55-7-7-7-77-)
C(-----------------------)

verse riff
d(------------------------------------)
a(------------------------------------)
f(------4--------2--------------------)
c(------------------------5-----2-----)
g(--222---22-000---00-------------2-0-)
C(--------------------555---222-------)


chorus
d(--------------------------------------------------------------)
a(--------------------------------------------------------------)
f(--------------------------------------------------------------)
c(--9-7-9-9-99999-5-5-55555-9-7-9-9-77777-775-5-55-44444444-9-7-)
g(--9-7-9-9-99999-5-5-55555-9-7-9-9-77777-775-5-55-44444444-9-7-)
C(--9-7-9-9-99999-5-5-55555-9-7-9-9-77777-775-5-55-44444444-9-7-)

chorus continued x3
d(---------------------------------------------------)
a(---------------------------------------------------)
f(-------------------------------------------------7-)
c(--9-7-9-9-99999-5-5-55555-9-7-9-9-77777-775-5-55-7-)
g(--9-7-9-9-99999-5-5-55555-9-7-9-9-77777-775-5-55-5-)
C(--9-7-9-9-99999-5-5-55555-9-7-9-9-77777-775-5-55---)

verse riff
d(------------------------------------)
a(------------------------------------)
f(------4--------2--------------------)
c(------------------------5-----2-----)
g(--222---22-000---00-------------2-0-)
C(--------------------555---222-------)
Добавлено: 24.07.2012
Другие материалы по этой песне:
  • Аккорды и текст

Страница создана 28.06.2012
http://primanota.ru/exies/my-ordinary-world-chords.htm
Привет, Гость.
Предлагаем пройти революционный курс по гитаре.
Подарок от PrimaNota.Ru, забирай!