PrimaNota.ru - самый крупный в мире бесплатный архив песенных текстов, аккордов, табулатур и нот


Exies - Normal - текст песни, таба, видео

Регистрация Запомнить меня
Войти через:  Facebook Google Twitter Vk Yandex Mail.ru

Exies - Normal - текст песни, таба, видео

Печатать
Просмотров: 145
Normal by The Exies
Album: Head for the Door
Track #11

Tuning: Guitar 1: Drop D(DADGBE)
        Guitar 2: Drop D(DADGBE)
A great song by the exies

Intro
Guitar 1
E/-----------------------------------------|
B/-----------------------------------------|
G/-3-2---------------3-2---------------3-2-|
D/-----3-3-3-3-1-1-1-----3-3-3-3-1-1-1-----|
A/-----3-3-3-3-1-1-1-----3-3-3-3-1-1-1-----|
D/-----3-3-3-3-1-1-1-----3-3-3-3-1-1-1-----|

Guitar 2
E/-----------------------------------------|
B/-----------------------------------------|
G/-----------------------------------------|
D/-----3-3-3-3-1-1-1-----3-3-3-3-1-1-1-----|
A/-1-0-3-3-3-3-1-1-1-1-0-3-3-3-3-1-1-1-1-0-|
D/-----3-3-3-3-1-1-1-----3-3-3-3-1-1-1-----|

Verse 
Guitar 1
E/----------------------|
B/----------------------|
G/-8-8-8-8-7-7-7-7-7--5-|
D/-x-x-x-x-x-x-x-x-x--x-|
A/-6-6-6-6-5-5-5-5-5--3-|
D/----------------------|


Guitar 2 (Palm-Muted)
E/-----------------|
B/-----------------|
G/-----------------|
D/-----------------|
A/-3-3-3-3-1-1-1-3-|
D/-3-3-3-3-1-1-1-3-|

Pre-Chorus
Guitar 1 and 2
E/---------------------------------------------|
B/---------------------------------------------|
G/-6-6-6--3-3-3-3------------------------------|
D/-6-6-6--3-3-3-3------------------------------|
A/-4-4-4--1-1-1-1--3-3-3-3-6-6-6-5-5-5-5-8-8-8-|
D/-----------------3-3-3-3-6-6-6-5-5-5-5-8-8-8-|

Chorus
Guitar 1
E/--------------------------------------|
B/--------------------------------------|
G/--------------------------------------|
D/-3-3-3-3-6-6-6-6-6--1-1-1-1-8-8-8-8-8-|x3
A/-3-3-3-3-6-6-6-6-6--1-1-1-1-8-8-8-8-8-|
D/-3-3-3-3-6-6-6-6-6--1-1-1-1-8-8-8-8-8-|

Guitar 2
E/-----------------------------------|
G/-----------------------------------|
G/-10-10-10-10--8-8-8-8--7-7-7-5-5-5-|
D/-x--x--x--x---x-x-x-x--x-x-x-x-x-x-|x3
A/-8--8--8--8---6-6-6-6--5-5-5-3-3-3-|
D/-----------------------------------|


then play this after chorus then play the intro again
--------------|
--------------|
-6-6-6--3-----|
-6-6-6--3-----|
-4-4-4--1--8/-|
-----------8/-|

VERSE

PRE-CHORUS

CHORUS

Bridge

Guitar 1
E/------------------------------------------------------------------------
B/------------------------------------------------------------------------
G/-15-15-15-15-14-14-14-14-14--15-15-15-15-14-14-14-14-14--15-15-15-15-14-
D/-x--x--x--x--x--x--x--x--x---x--x--x--x--x--x--x--x--x---x--x--x--x--x--
A/-13-13-13-13-12-12-12-12-12--13-13-13-13-12-12-12-12-12--13-13-13-13-12-
D/------------------------------------------------------------------------

--------------------------------------------------------------------------
--------------------------------------------------------------------------
-14-14-14-14--15-15--17-15-14-17-15-14-17-15-14h15-14--8--7--5--3-3--2--8-
-x--x--x--x---x--x-------------------------------------x--x--x--x-x--2--x-
-12-12-12-12--13-13------------------------------------6--5--3--1-1--0--6-
--------------------------------------------------------------------------

-------------------------------------------------------------------|
-------------------------------------------------------------------|
-7--5--3-3--2--8--7--5--3-3--2--------------------------8-8/10-----|
-x--x--x-x--2--x--x--x--x-x--2--------------------------x-x--------|
-5--3--1-1--0--6--5--3--1-1--0-----3----5----6----6-----6-6/8------|
--------------------------------3-3--3-3--3-3--3-3--3-3------------|

Guitar 2
E/-----------------|
B/-----------------|
G/-----------------|
D/-3-3-3-1-1-1-1-3-|
A/-3-3-3-1-1-1-1-3-|
D/-3-3-3-1-1-1-1-3-|

Interlude after Bridge
Guitar 1
E/--------------|
B/--------------|
G/-8-----7----5-|
D/-x-----x----x-|
A/-6-----5----3-|
D/--------------|

Guitar 2
no play

PRE-CHORUS 
CHORUS

Ending
Guitar 1
E/-----------------|
B/-----------------|
G/-----------------|
D/-3-3-3-3-3-1-3-1-|
A/-3-3-3-3-3-1-3-1-|
D/-3-3-3-3-3-1-3-1-|

Guitar 2
E/-----------------------|
B/-----------------------|
G/-10-10-10-10-10-8-10-8-|
D/-x--x--x--x--x--x-x--x-|
A/-8--8--8--8--8--6-8--6-|
D/-----------------------|

ENJOY
Добавлено: 12.04.2012
Другие материалы по этой песне:
  • Аккорды и текст

Страница создана 12.04.2012
http://primanota.ru/exies/normal-chords.htm
Привет, Гость.
Предлагаем пройти революционный курс по гитаре.
Подарок от PrimaNota.Ru, забирай!