PrimaNota.ru - самый крупный в мире бесплатный архив песенных текстов, аккордов, табулатур и нот


Entombed - Wont Back Down - текст песни, таба, видео

Регистрация Запомнить меня
Войти через:  Facebook Google Twitter Vk Yandex Mail.ru

Entombed - Wont Back Down - текст песни, таба, видео

Печатать
Просмотров: 124
Авторы музыки: Uffe Cederlund
Авторы текста: Uffe Cederlund
Band- Entombed
Song- Won't Back Down

Tune Down 1 Step

Riff 1A

D -----------------------------------------------------------------------------------------------------------------------|
A -----------------------------------------------------------------------------------------------------------------------|
F -----------------------------------------------------------------------------------------------------------------------|
C -5---8--2------------------------------2--------------------7---8--2------------------------------2--------------------|
G -5---8--2------------------------------2--------------5-2---7---8--2------------------------------2--------------5-2---|
D -3---6--0--0-0-0-0-0-0-0-0-3-0-6-0-3-5-0--0-0-0-0-0-0-----0-5---6--0--0-0-0-0-0-0-0-0-3-0-6-0-3-5-0--0-0-0-0-0-0-----0-|

D --------|
A --------|
F --------|
C -5---8--|
G -5---8--|
D -3---6--|

Riff 1

D -------------------------------------------------------------------------------------------------------------------|
A -------------------------------------------------------------------------------------------------------------------|
F ----------7--9-----------------------------------------------------7--9--------------------------------------------|
C -2--------7--9----------------2--------------------7---8--2--------7--9----------------2--------------------5---8--|
G -2--------5--7----------------2--------------5-2---7---8--2--------5--7----------------2--------------5-2---5---8--|
D -0--0-0-0-------0-3-0-6-0-3-5-0--0-0-0-0-0-0-----0-5---6--0--0-0-0-------0-3-0-6-0-3-5-0--0-0-0-0-0-0-----0-3---6--|

Riff 2

D -----------------------------------------------------------------------------------------|
A -----------------------------------------------------------------------------------------|
F -----------------------------------------------------------------------------------------|
C -2---2---2--5---4---2------------------------2---2---2--5---4---2------------------------|
G -2---2---2--5---4---2--4---5---5--4---5---5--2---2---2--5---4---2--4---5---5--4---5---5--|
D -0---0---0--3---2---0--4---5---5--4---5---5--0---0---0--3---2---0--4---5---5--4---5---5--|

Riff 3

D ----------------------------------------------------------------------------------------------|
A ----------------------------------------------------------------------------------------------|
F -9--9-9--9-9----------9--10-10--10-10----------10--9-9--9-9----------9--10-10--10-10----------|
C -9--9-9--9-9----------9--10-10--10-10----------10--9-9--9-9----------9--10-10--10-10----------|
G -7--7-7--7-7----------7--8 -8 --8 -8 ----------8 --7-7--7-7----------7--8 -8 --8 -8 ----------
D ----------------------------------------------------------------------------------------------

D -------------------------------------------------------------------------------------------|
A -------------------------------------------------------------------------------------------|
F -9--9-9--9-9----------9--10-10--10-10----------12---12---12--12----14----11----------------|
C -9--9-9--9-9----------9--10-10--10-10----------12---12---12--12----14----11----------------|
G -7--7-7--7-7----------7--8 -8 --8 -8 ----------10---10---10--10----12----9 ----------------
D -------------------------------------------------------------------------------------------

Riff 3A

D -12   ----------------13   ----------------12   ----------------13   ----------------
A -15b17----------------16b18----------------15b17----------------16b18----------------|
F -------------------------------------------------------------------------------------|
C -------------------------------------------------------------------------------------|
G -------------------------------------------------------------------------------------|
D -------------------------------------------------------------------------------------|

D -12   ----------------13   ----------------15   ---15   ---15   --15   ----17   ----14   ----------------
A -15b17----------------16b18----------------18b20---18b20---18b20--18b20----20b22----17b19----------------|
F ---------------------------------------------------------------------------------------------------------|
C ---------------------------------------------------------------------------------------------------------|
G ---------------------------------------------------------------------------------------------------------|
D ---------------------------------------------------------------------------------------------------------|

Riff 3B

D -------------------------------------------------------------------------------------|
A -------------------------------------------------------------------------------------|
F -------------------------------------------------------------------------------------|
C -2--2-2--2-2----------2--3-3--3-3----------3--2-2--2-2----------2--3-3--3-3----------|
G -2--2-2--2-2----------2--3-3--3-3----------3--2-2--2-2----------2--3-3--3-3----------|
D -0--0-0--0-0----------0--1-1--1-1----------1--0-0--0-0----------0--1-1--1-1----------|

D -----------------------------------------------------------------------------------------------|
A -----------------------------------------------------------------------------------------------|
F -----------------------------------------------------------------------------------------------|
C -3--2-2--2-2----------2--3-3--3-3----------5--5-5--5-5--5--5-5--5-5--5--5-5--5-5--5--5-5--5-5--|
G -3--2-2--2-2----------2--3-3--3-3----------5--5-5--5-5--5--5-5--5-5--5--5-5--5-5--5--5-5--5-5--|
D -1--0-0--0-0----------0--1-1--1-1----------3--3-3--3-3--3--3-3--3-3--3--3-3--3-3--3--3-3--3-3--|

Riff 3C

D ----------------------------------------------------------------------------------
A -5  ----------------6   ----------------12   ----------------11   ----------------
F -7b9----------------8b10----------------14b16----------------13b15----------------|
C ----------------------------------------------------------------------------------|
G ----------------------------------------------------------------------------------|
D ----------------------------------------------------------------------------------|

D -12   ----------------13   ----------------------------------------------------------|
A -15b17----------------16b18----------------12   ----------------11   ----------------|
F -------------------------------------------14b16----------------13b15----------------|
C -------------------------------------------------------------------------------------|
G -------------------------------------------------------------------------------------|
D -------------------------------------------------------------------------------------|

Riff 4A

D -----------------------------------------------------------------|
A -----------------------------------------------------------------|
F -----------------------------------------------------------------|
C -----------------------------------------------------------------|
G -----7-7-----7-7-----7-7-----7-7-----7-7-----7-7-----7-7-----7-7-|
D -0-0-----0-0-----0-0-----0-0-----0-0-----0-0-----0-0-----0-0-----|

Riff 4

D -----------------------------------------------------------------------------|
A -----------------------------------------------------------------------------|
F ---------------------------------8---8---8----8--8--8--8---8---8----8--8--8--|
C ---------------------------------8---8---8----8--8--8--8---8---8----8--8--8--|
G -----7-7-----7-7-----7-7-----7-7-6---6---6----6--6--6--6---6---6----6--6--6--|
D -0-0-----0-0-----0-0-----0-0-----6---6---6----6--6--6--6---6---6----6--6--6--|

Riff 5

D ---------------------------------------------------------------------------------------------------------------|
A ---------------------------------------------------------------------------------------------------------------|
F ----------7--9-------------------------7--9----------------------7--9-------------------------7--9-------------|
C -4--4-4-4-7--9----------------4--4-4-4-7--9-------------4--4-4-4-7--9----------------4--4-4-4-7--9----8-5-7==--|
G -2--2-2-2-5--7----------------2--2-2-2-5--7-------------2--2-2-2-5--7----------------2--2-2-2-5--7--7----------|
D -2--2-2-2-------0-3-0-6-0-3-5-2--2-2-2-------0-3-6-5====2--2-2-2-------0-3-0-6-0-3-5-2--2-2-2------------------|

D -------------------------------------------------------------------------------------------------------|
A -------------------------------------------------------------------------------------------------------|
F ----------7--9-------------------------7--9----------------------7--9----------------------------7--7--|
C -4--4-4-4-7--9----------------4--4-4-4-7--9-------------4--4-4-4-7--9----------------4--4--4--4--7--7--|
G -2--2-2-2-5--7----------------2--2-2-2-5--7-------------2--2-2-2-5--7----------------2--2--2--2--5--5--|
D -2--2-2-2-------0-3-0-6-0-3-5-2--2-2-2-------0-3-6-5====2--2-2-2-------0-3-0-6-0-3-5-2--2--2--2--------|
                                               |--3--|  |--3---------------------------------------------|

Riff 6

D --------------------------------------------------------|
A --------------------------------------------------------|
F -9--------10--------9--------9---10---10--10---10---10--|
C -9--------10--------9--------9---10---10--10---10---10--|
G -7--------8 --------7--------7---8 ---8 --8 ---8 ---8 --
D --------------------------------------------------------

Order

Riff 1A x 1
Riff 1 x 2
Riff 2 x 2
Riff 3/3A x 1
Solo over Riff 2 x 1
Riff 2 x 2
Riff 3B/3C x 1
Riff 3 x 2
Riff 4A x 1
Solo over Riff 4 x 4
Solo over Riff 5 x 1
Solo over Riff 6 x 2
Solo over Riff 3B x 1
Riff 3B x 1
Solo over Riff 2 x 2
Добавлено: 27.05.2012
Другие материалы по этой песне:
  • Аккорды и текст

Страница создана 28.02.2012
http://primanota.ru/entombed/wont-back-down-chords.htm
Привет, Гость.
Предлагаем пройти революционный курс по гитаре.
Подарок от PrimaNota.Ru, забирай!