PrimaNota.ru - самый крупный в мире бесплатный архив песенных текстов, аккордов, табулатур и нот


Entombed - Something Out Of Nothing - текст песни, таба, видео

Регистрация Запомнить меня
Войти через:  Facebook Google Twitter Vk Yandex Mail.ru

Entombed - Something Out Of Nothing - текст песни, таба, видео

Печатать
Просмотров: 129
Авторы музыки: Uffe Cederlund
Авторы текста: Uffe Cederlund
-------------------------------------------------------------------------------
                             Something out of Nothing- Entombed
-------------------------------------------------------------------------------
Tabbed by: Quentin Minor
E-mail: QminorA@gmail.com

Tuning: Drop D (D,A,D,G,B,e)

There were a few parts that I couldn't quite get down, but I'd say the tab is about 90% accurate.
Relatively Easy to play this song, but it's a damn good one.  Had to tab it myself since there
were no other tabs out there.


Intro (3x)
        e|--------------------------------|
        B|--------------------------------|
        G|--------------------------------|
        D|--------------------------------|
        A|--------------------------------|
        D|-0-9-8-0-8-7-0-7-0-7-6-0-6-5-0-5|

Intro-4th time
        e|-----------------------------------|
        B|-----------------------------------|
        G|-----------------------------------|
        D|-----------------------------------|
        A|-----------------------------------|
        D|-12-10-7-0-7-6-0-6-0-6-5-0-6-5-0-5-|

Pre-verse(2x)
        e|------------------------------------------------------|
        B|------------------------------------------------------|
        G|---------------14-------------------------------------|
        D|-0------------------------------------------3-5-----3-|
        A|-0---------------------------3p0------------3-5-3h5-3-|
        D|-0--0-0-0-0-0------0-0-0-0-0-----0-0-0-0-0--3-5-----3-|

Verse(2x)
        e|----------------------------------------------------|
        B|----------------------------------------------------|
        G|----------------------------------------------------|
        D|-0-----------3h0-------------------------3-5-----3--|
        A|-0-------------------------3p0-----------3-5-3h5-3--|
        D|-0-0-0-0-0-0-----0-0-0-0-0-----0-0-0-0-0-3-5-----3--|

Chorus Part 1
        e|-----------------|
        B|-----------------|
        G|-----------------|
        D|-6-5h6-3-----3-3-|
        A|-6-5h6-3---------|
        D|-6-5h6-3-0-0-----|

Chorus Bridge (back to part 1 on second chorus)
        e|---------------------------|
        B|---------------------------|
        G|---------------------------|
        D|-0---------3-0-----3-------|
        A|-0-----3h5-3-0-3h5-3-------|
        D|-0-0-0-----3-0-----3-------|

Chorus part 2
        e|--------------------------------|
        B|--------------------------------|
        G|--------------------------------|
        D|-6----6-2-2-2-2-2-2-6-5-0-------|
        A|-6----6-2-2-2-2-2-2-6-5-0-3-4-5-|
        D|-6----6-2-2-2-2-2-2-6-5-0-------|

"Gallopy"-part
         |18 x |
        e|-----|
        B|-----|
        G|-----|
        D|-----|
        A|-----|
        D|-000-|

        e|-----------------|
        B|-----------------|
        G|-----------------|
        D|-6---------3-5h6-|
        A|-6---------3-5h6-|
        D|-6-000-000-3-5h6-|

        e|---------------------------|
        B|---------------------------| (Swaps between this and the next riff.
        G|---------------------------|  Figure out how many times yourself)
        D|------------6---------3-5h6|
        A|------------6---------3-5h6|
        D|000-000-000-6-000-000-3-5h6|

        e|----------------|
        B|----------------|
        G|----------------|
        D|----------------|
        A|----------------|
        D|-0-9-8-0-8-7-0-7|

Bass groove
        G|---------------------------| (Guitar holds a B-string 15th for the intro
        D|-0---------3-0-----3-------|  then pickslides)
        A|-0-----3h5-3-0-3h5-3-------|
        D|-0-0-0-----3-0-----3-------|

End of the Song
        e|--------------------------------|
        B|--------------------------------|
        G|--------------------------------|
        D|-6----6-2-2-2-2-2-2-6-5-0-------|
        A|-6----6-2-2-2-2-2-2-6-5-0-3-4-5-|
        D|-6----6-2-2-2-2-2-2-6-5-0-------|

        e|------------------------------------------------------|
        B|------------------------------------------------------|
        G|---------------14-------------------------------------|
        D|-0------------------------------------------3-5-----3-|
        A|-0---------------------------3p0------------3-5-3h5-3-|
        D|-0--0-0-0-0-0------0-0-0-0-0-----0-0-0-0-0--3-5-----3-|

        e|---------------------15-17-|
        B|---------------15-18-------|
        G|---------------------------|
        D|-0-------------------------|
        A|-0-------------------------|
        D|-0--0-0-0-0-0--------------|

        e|--------------------|
        b|--------------------|
        G|--------------------|
        D|-3-0-------3-0------|
        A|-3-0---3h5-3-0------|
        D|-3-0-0-----3-0------|

************************************

| /   slide up
| \   slide down
| h   hammer-on
| p   pull-off
| ~   vibrato
| +   harmonic
| x   Mute note
| b   Bend
| pb  Pre-bend
| br  Bend release
| pbr Pre-bend release
| brb Bend release bend

************************************
Добавлено: 19.10.2013
Вам также может быть интересно:
Другие материалы по этой песне:
  • Аккорды и текст

Страница создана 14.04.2012
http://primanota.ru/entombed/something-out-of-nothing-chords.htm
Привет, Гость.
Предлагаем пройти революционный курс по гитаре.
Подарок от PrimaNota.Ru, забирай!