PrimaNota.ru - самый крупный в мире бесплатный архив песенных текстов, аккордов, табулатур и нот


Emarosa - I Still Feel Her Part 1 - таба, видео

Регистрация Запомнить меня
Войти через:  Facebook Google Twitter Vk Yandex Mail.ru

Emarosa - I Still Feel Her Part 1 - таба, видео

Печатать
Просмотров: 105
---------------------------------------------------------------              
I Still Feel Her: Part 1 - Emarosa
---------------------------------------------------------------
Tabbed by: Kristyn Lee
Email: spot_the_village_loony_836@hotmail.com

Tuning: Db Ab Db Gb Bb eb

guitar 1
eb|----------8----------------------------|
Bb|------6h8---8~------8------------------|
Gb|--5h8-----------5/7---8/10-------------|
Db|---------------------------8~----------|
Ab|---------------------------------------|
Db|---------------------------------------|
guitar 2                                  |
eb|---------------------------------------|
Bb|---------------------------------------|
Gb|----------3-----------3p2--------------|
Db|------3h5---3~------5-----3/5~---------|
Ab|--3h6-----------3h6--------------------|
Db|---------------------------------------|

guitar 1
eb|---------------------------------------|
Bb|------6h8-4h6~-------6/11--------------|
Gb|--5h8------------5h8------10~----------|
Db|---------------------------------------|
Ab|---------------------------------------|
Db|---------------------------------------|
guitar 2                                  |
eb|-------------------------6-------------|
Bb|------6h8-4h6~-------4h6---------------|
Gb|--5h8------------5h8-------7-8\\\------|
Db|---------------------------------------|
Ab|---------------------------------------|
Db|---------------------------------------|

guitar 1
eb|----------8----------------------------|
Bb|------6h8---8~-------8-----------------|
Gb|--5h8------------5/7---8/10------------|
Db|----------------------------8~---------|
Ab|---------------------------------------|
Db|---------------------------------------|
guitar 2                                  |
eb|---------------------------------------|
Bb|---------------------------------------|
Gb|--------3p2------------3p2-------------|
Db|------3-----3~-------5-----3/5~--------|
Ab|--3h6------------3h6-------------------|
Db|---------------------------------------|

guitar 1
eb|---------------------------------------|
Bb|------6h8-4h6~-------6/11--------------|
Gb|--5h8------------5h8------10~----------|
Db|---------------------------------------|
Ab|---------------------------------------|
Db|---------------------------------------|
guitar 2                                  |
eb|-------------------------6-------------|
Bb|------6h8-4h6~-------4h6---------------|
Gb|--5h8------------5h8-------7-8\\\------|
Db|---------------------------------------|
Ab|---------------------------------------|
Db|---------------------------------------|

guitar 1
eb|----------------------------------------------------------------|
Bb|-------------------------------15-13-15-13-15-13-15-13-16-15-13-|
Gb|---12-12-12-12-12-15-15-15-15-----------------------------------|
Db|----------------------------------------------------------------|
Ab|----------------------------------------------------------------|
Db|----------------------------------------------------------------|

eb|----------------------15-15-15-15-15-15-15-15-15-15-18-18-18-18-18--|
Bb|-15-13-15-13-15-13-16-----------------------------------------------|
Gb|--------------------------------------------------------------------|
Db|--------------------------------------------------------------------|
Ab|--------------------------------------------------------------------|
Db|--------------------------------------------------------------------|

eb|--18-18-18-18-18-20-20-20-20-20-20-20-20--|
Bb|------------------------------------------|
Gb|------------------------------------------|
Db|------------------------------------------|
Ab|------------------------------------------|
Db|------------------------------------------|


guitar 2     this is a bit off
eb|------------------------------------------------------|
Bb|------------------------------------------------------|
Gb|--------------------------------------12--------------|x4
Db|-----------------3h5-8p7---------8-10-----------------|
Ab|--6666-6666--3h6---------10p8/10----------------------|
Db|--6666-6666-------------------------------------------|

Guitar 1
0:38 t   t   t
eb|--20--18--15-----13-15p13----13-15p13-15---15---15---15------|
Bb|--------------11----------11------------11----11---11---11---|
Gb|-------------------------------------------------------------|
Db|-------------------------------------------------------------|
Ab|-------------------------------------------------------------|
Db|-------------------------------------------------------------|
Guitar 2
eb|-------------------------------------|
Bb|---8888-8888-8888-8888---------------|
Gb|---xxxx-xxxx-xxxx-xxxx---------------|
Db|---8888-8888-8888-8888--3333-3333----|
Ab|---6666-6666-6666-6666--1111-1111----|
Db|-------------------------------------|

That's all i have for now. It's a start.

| /  slide up
| \  slide down
| h  hammer-on
| p  pull-off
| ~  vibrato
| +  harmonic
| x  Mute note
===========================================================
Добавлено: 23.02.2012
Другие материалы по этой песне:
  • Аккорды и текст

Страница создана 23.02.2012
http://primanota.ru/emarosa/i-still-feel-her-part-1-chords.htm
Привет, Гость.
Предлагаем пройти революционный курс по гитаре.
Подарок от PrimaNota.Ru, забирай!