PrimaNota.ru - самый крупный в мире бесплатный архив песенных текстов, аккордов, табулатур и нот


Electric Wizard - Stone Magnet - текст песни, таба, бас-таба, видео

Регистрация Запомнить меня
Войти через:  Facebook Google Twitter Vk Yandex Mail.ru

Electric Wizard - Stone Magnet - текст песни, таба, бас-таба, видео

Печатать
Просмотров: 236
-------------------------------------------------------------------------------
Song: Stone Magnet
Band: Electric Wizard
Album: Electric Wizard
Tabbed by: TrollFaceJesus
E-mail: trollfacejesus@gmail.com


Hey guys, this is my tab for this song, and I think it sounds pretty good. All 
of the rhythm parts are in here, but I didn't tab the solo. Hopefully everything 
here is accurate, and that you guys find this tab to be helpful! If you have any 
comments, questions, or corrections to point out, please feel free to leave a 
message here, or to send me an email! :D


Tuning: C


Riff 1
|-----------------------------------|
|-----------------------------------|
|-----------------------------------| x12
|--2-------8-7---5------------------|
|--0--0-0--6-5-0-3--0-0-0-0-0--9p8--|
|-----------------------------------|
      . .      .    . . . . .

Riff 2 (Guitar 1)
|-----------------------------------|
|-----------------------------------|
|-----------------------------------| x4
|-----------------------------------|
|-----------10p9---5--4-5-4-5-4-7\--|
|--5h7-0-0-------0------------------|
       . .       .

Riff 2 (Guitar 2)
|-----------------------------------|
|-----------------------------------|
|-----------------------------------| x4
|-----------12/11--7--6-7-6-7-6-9\--|
|--7/9------10/9---5--4-5-4-5-4-7\--|
|--5/7-0-0-------0------------------|
       . .       .

Riff 1 x 12

Riff 2 x 4


Riff 3 (Guitar 1)
|--------------------|
|--------------------|
|--------------------| x1
|--2---6---8---9-8\--|
|--2---6-------------|
|--0---4-------------|

Riff 3 (Guitar 2)
|--------------------|
|--------------------|
|--------------------| x1
|--2---6---8---9-8\--|
|--2---6---8---9-8\--|
|--0---4---6---7-6\--|


Riff 4a (Guitar 1)
|-----------------------------|
|-----------------------------|
|-----------------------------| x5
|--------------------8--9-8\--|
|-----------------------------|
|--3-3-3-3-3-3-3-3------------|
   . . . . . . . .

Riff 4a (Guitar 2)
|-----------------------------|
|-----------------------------|
|-----------------------------| x5
|--------------------8--9-8\--|
|--------------------8--7-8\--|
|--3-3-3-3-3-3-3-3---6--7-6\--|
   . . . . . . . .

Riff 4b
|-------------------|
|-------------------|
|-------------------| x1
|-------------------|
|-------------------|
|--3-3-3-3-3-3-3-3--|
   . . . . . . . .

[Note: Gradually slow down 
the tempo during this riff.]


Riff 5a
|----------------------------------|
|----------------------------------|
|----------------------------------| x1
|----------------------------------|
|--2--2------------------7-6-5tr6--|
|--0--0--/6-5-3-5b-5pbr------------|

Riff 5b
|--------------------------------|
|--------------------------------|
|--------------------------------| x1
|--------------------------------|
|--2--2------------------7-5-7b--|
|--0--0--/6-5-3-5b-5pbr----------|


Riff 5a x 1

Riff 5b x 1

Riff 5a x 1

Riff 5b x 1

Riff 5a x 1

Riff 5b x 1

Riff 5a x 1

Riff 5b x 1

Riff 5a x 1

Riff 5b x 1

Riff 5a x 1

Riff 5b x 1

Riff 5a x 1

Riff 5b x 1


And that's about it!


************************************

| /   slide up
| \   slide down
| h   hammer-on
| p   pull-off
| v   vibrato
| +   harmonic
| ·   Mute note
| b   Bend
| pb  Pre-bend
| br  Bend release
| pbr Pre-bend release
| brb Bend release bend

************************************
Добавлено: 28.06.2013
Другие материалы по этой песне:
  • Аккорды и текст

Страница создана 01.07.2012
http://primanota.ru/electric-wizard/stone-magnet-chords.htm
Привет, Гость.
Предлагаем пройти революционный курс по гитаре.
Подарок от PrimaNota.Ru, забирай!