PrimaNota.ru - самый крупный в мире бесплатный архив песенных текстов, аккордов, табулатур и нот


Electric Wizard - Satanic Rites Of Drugula - таба, видео

Регистрация Запомнить меня
Войти через:  Facebook Google Twitter Vk Yandex Mail.ru

Electric Wizard - Satanic Rites Of Drugula - таба, видео

Печатать
Просмотров: 572
|  Band: ELECTRIC WIZARD            |
|  Song: Satanic Rites of Drugula   |
| Album: Witchcult Today (2007)     |
|Tuning: No clue. prolly some Crazy |
|        Low-end tuning, but I used |
|        Drop-D(D-A-D-G-B-e) and it |
|        sounds pretty sweet.       |
|                                   |
|     Transcribed By: Andrew K.     |
|   E-mail: SaucyRebel@hotmail.com  |

 This is such a wicked song, one of the best off the new album. I 
didn't tab the solo's cause im not that good, but the rest of the 
song sounds pretty good. 

                Enjoy!


~~~~~~~~~~~~~~>|Legend|<~~~~~~~~~~~~~~
| ~ -- Let ring                      |
| s -- Slide to required note        |
| h -- Hammer on                     |
| p -- Pull off                      |
| b -- Bend to required pitch        |
| r -- Bend Return to required pitch |
~~~~~~~~~~~~~~~~~~~~~~~~~~~~~~~~~~~~~~


~~>|Intro|<~~
-
Guitar 1
e-------------------------------------------------|\
B-------------------------------------------------| |
G-------------------------------------------------| |4x
D----/11--11--11-77-7b8r7-4--4--4-00-0h1p0--------| |
A----/11--11--11-77-7b8r7-4--4--4-00-0h1p0--------| |
D----/11--11--11-77-7b8r7-4--4--4-00-0h1p0--------|/
-
Guitars 1 & 2
e-------------------------------------------------|\
B-------------------------------------------------| |
G-------------------------------------------------| |2x
D----/11--11--11-77-7b8r7-4--4--4-00-0h1p0--------| |
A----/11--11--11-77-7b8r7-4--4--4-00-0h1p0--------| |
D----/11--11--11-77-7b8r7-4--4--4-00-0h1p0--------|/
-
Guitar 1
e-------------------------------------------------|\
B-------------------------------------------------| |
G-------------------------------------------------| |2x
D----/11--11--11-77-7b8r7-4--4--4-00-0h1p0--------| |
A----/11--11--11-77-7b8r7-4--4--4-00-0h1p0--------| |
D----/11--11--11-77-7b8r7-4--4--4-00-0h1p0--------|/
-
Guitar 2 plays this with Guitar 1(above):
e------------------------------------------------|\
B------------------------------------------------| |
G------------------------------------------------| |4x
D------------------------------------------------| |
A----------------------------------------16------| |
D----18p16-18p16-18p16-18p16-18p16-18p16---------|/


~~>|Verse|<~~
-
Guitars 1 & 2
e--------------------------------------------------------------|\
B--------------------------------------------------------------| |
G--------------------------------------------------------------| |6x
D----9h11-11--119h11-11-9h11-11--/14-14-1414p13-13-13h14-14----| |
A----9h11-11--119h11-11-9h11-11--/14-14-1414p13-13-13h14-14----| |
D----9h11-11--119h11-11-9h11-11--/14-14-1414p13-13-13h14-14----|/


~~>|Chorus|<~~
-
Guitars 1 & 2
e--------------------------|\
B--------------------------| |
G--------------------------| |4x
D----/11--11-10-7--7-10----| |
A----/11--11-10-7--7-10----| |
D----/11--11-10-7--7-10----|/


~~>|Verse(again)|<~~
-
Guitars 1 & 2
e--------------------------------------------------------------|\
B--------------------------------------------------------------| |
G--------------------------------------------------------------| |6x
D----9h11-11--119h11-11-9h11-11--/14-14-1414p13-13-13h14-14----| |
A----9h11-11--119h11-11-9h11-11--/14-14-1414p13-13-13h14-14----| |
D----9h11-11--119h11-11-9h11-11--/14-14-1414p13-13-13h14-14----|/


~~>|Chorus(again)|<~~
-
Guitars 1 & 2
e--------------------------|\
B--------------------------| |
G--------------------------| |4x
D----/11--11-10-7--7-10----| |
A----/11--11-10-7--7-10----| |
D----/11--11-10-7--7-10----|/


Theres a solo Right here, but i dont know it. Guitar 1 Plays Verse as Rythm:
~~>|Rythm during solo|<~~
-
Guitar 1
e--------------------------------------------------------------|\
B--------------------------------------------------------------| |
G--------------------------------------------------------------| |6x
D----9h11-11--119h11-11-9h11-11--/14-14-1414p13-13-13h14-14----| |
A----9h11-11--119h11-11-9h11-11--/14-14-1414p13-13-13h14-14----| |
D----9h11-11--119h11-11-9h11-11--/14-14-1414p13-13-13h14-14----|/


~~>|Chorus(another one)|<~~
-
Guitars 1 & 2
e--------------------------|\
B--------------------------| |
G--------------------------| |4x
D----/11--11-10-7--7-10----| |
A----/11--11-10-7--7-10----| |
D----/11--11-10-7--7-10----|/


~~>|Outro|<~~
-
Guitars 1 & 2
e-------------------------------------------------|\
B-------------------------------------------------| |
G-------------------------------------------------| |4x
D----/11--11--11-77-7b8r7-4--4--4-00-0h1p0--------| |
A----/11--11--11-77-7b8r7-4--4--4-00-0h1p0--------| |
D----/11--11--11-77-7b8r7-4--4--4-00-0h1p0--------|/
-
Guitar 1
e-------------------------------------------------|\
B-------------------------------------------------| |
G-------------------------------------------------| |10x
D----/11--11--11-77-7b8r7-4--4--4-00-0h1p0--------| |
A----/11--11--11-77-7b8r7-4--4--4-00-0h1p0--------| |
D----/11--11--11-77-7b8r7-4--4--4-00-0h1p0--------|/
-
Guitar 2 plays this with Guitar 1(above) then trails off
into a final solo:
e------------------------------------------------|\
B------------------------------------------------| |
G------------------------------------------------| |7x
D------------------------------------------------| |
A----------------------------------------16------| |
D----18p16-18p16-18p16-18p16-18p16-18p16---------|/
-
Guitars 1 & 2 both end on:
e--------------------|\
B--------------------| |
G--------------------| |4x
D----/11~~~~~~~~~----| |
A----/11~~~~~~~~~----| |
D----/11~~~~~~~~~----|/

END
Добавлено: 08.07.2012
Другие материалы по этой песне:

Страница создана 28.03.2012
http://primanota.ru/electric-wizard/satanic-rites-of-drugula-chords.htm
Привет, Гость.
Предлагаем пройти революционный курс по гитаре.
Подарок от PrimaNota.Ru, забирай!