PrimaNota.ru - самый крупный в мире бесплатный архив песенных текстов, аккордов, табулатур и нот


Electric Wizard - Night Child - таба, видео

Регистрация Запомнить меня
Войти через:  Facebook Google Twitter Vk Yandex Mail.ru

Electric Wizard - Night Child - таба, видео

Печатать
Просмотров: 181
  ARTIST : ELECTRIC WIZARD
  ALBUM  : BLACK MASSES
  SONG   : NIGHTCHILD

  TUNING : B STANDARD (2 and a 1/2 steps below E Standard)
  I have included the notes if you don't want to tune down.

  Tabbed by SATAN'S SLAVE
  Hate mail to: batteryacid88@yahoo.com.au

   .  = Palm Mute
  / \ = Slide up/Slide down
   ~  = Bend/or vibrato
   h  = hammer on

   Intro/Verse
B |--------------------------------------------------------------------------------------|
F#|--------------------------------------------------------------------------------------|
D |--------------------------------------------------------------------------------------|
A |---7-----7----------------7-----7----------------7-777-7-777---10----10----10----8888-|
E |---7-----7----------------7-----7----------------7-777-7-777---10----10----10----8888-|
B |---5-555-5-555--8-5-8-3~--5-555-5-555-8-5-8-3~---5-555-5-555---8-888-8-888-8-888-6666-|
        ...   ...              ...   ...              ...   ...     ...   ...   ...
      E            G E G D   E           G E G D    E             G                 F

   Chorus
B |--------------------------------------------------------------------------------------|
F#|--------------------------------------------------------------------------------------|
D |--------------------------------------------------------------------------------------|
A |---7-7-----8-8-----5-5----------------------------------------------------------------|
E |---7-7-12~-8-8-13~-5-5-10~10~10~10-10h12-12~------------------------------------------|
B |---5-5-----6-6-----3-3----------------------------------------------------------------|

      E       F#      D                  E



   Bridge
B |--------------------------------------------------------------------------------------|
F#|--------------------------------------------------------------------------------------|
D |--------------------------------------------------------------------------------------|
A |--------------------------------------------------------------------------------------|
E |---12-12-12-12/13-13-13-1313-13\10-10-10-10-10----------------------------------------|
B |--------------------------------------------------------------------------------------|

      E           F#               D
Добавлено: 01.07.2013
Другие материалы по этой песне:
  • Аккорды и текст

Страница создана 01.07.2013
http://primanota.ru/electric-wizard/night-child-chords.htm
Привет, Гость.
Предлагаем пройти революционный курс по гитаре.
Подарок от PrimaNota.Ru, забирай!