PrimaNota.ru - самый крупный в мире бесплатный архив песенных текстов, аккордов, табулатур и нот


Electric Wizard - Black Mass - таба, видео

Регистрация Запомнить меня
Войти через:  Facebook Google Twitter Vk Yandex Mail.ru

Electric Wizard - Black Mass - таба, видео

Печатать
Просмотров: 247
ARTIST : ELECTRIC WIZARD
 ALBUM  : BLACK MASSES
 SONG   : BLACK MASS

 The legendary doom masters ELECTRIC WIZARD'S BLACK MASS

 TUNING : B STANDARD (2 and a 1/2 steps below E Standard)

 I'm not sure exactly what tuning the WIZARD play in, they seem to change slightly from 
album to album. But it's
 definatley always very low and some times a dropped tuning like drop B or even A#. I 
perfer to use B standard.
 I have included the notes if you don't want to tune down.

 Tabbed by SATAN'S SLAVE
 Corrections and hate mail to: batteryacid88@yahoo.com.au

  .  = Palm Mute
 / \ = Slide up/Slide down
  ~  = Bend/or vibrato



   Intro (Repeat)
B |---------------------------------------------------------------|
F#|---------------------------------------------------------------|
D |---------------------------------------------------------------|
A |---5/7-777-----5/7-777-----------------------------------------|
E |---5/7-777-----5/7-777-----------------------------------------|
B |---3/5-555--00-3/5-555--00-------------------------------------|
          ...  ..     ...  ..

      D E      B  D E      B


   Verse
B |---------------------------------------------------------------|
F#|---------------------------------------------------------------|
D |---------------------------------------------------------------|
A |------5/7-777-77-7/9-999-99-9/10-101010-1010-10/12-121212-1212-|
E |------5/7-777-77-7/9-999-99-9/10-101010-1010-10/12-121212-1212-|
B |---00-3/5-555-55-5/7-777-77-7/8--8-8-8--8-8--8-/10-101010-1010-|
      ..

      B  D E          F#         G                  A

                                                            Repeat
B |---------------------------------------------------------------|
F#|---------------------------------------------------------------|
D |---------------------------------------------------------------|
A |------5/7-777-77-7/9-999-99-9/10-101010-1010-5/7-777-----------|
E |------5/7-777-77-7/9-999-99-9/10-101010-1010-5/7-777-----------|
B |------3/5-555-55-5/7-777-77-7/8--8-8-8--8-8--3/5-555-----------|

         D E          F#         G                D E



   Chorus
B |---------------------------------------------------------------|
F#|---------------------------------------------------------------|
D |---------------------------------------------------------------|
A |----5/7-777------5/7-777---------------------------------------|
E |----5/7-777------5/7-777---------------------------------------|
B |----3/5-555--00--3/5-555--00--8~-8~-8~--7~7~7~7~---------------|
                ..           ..
       D E      B   D E      B   G         F#



B |---------------------------------------------------------------|
F#|---------------------------------------------------------------|
D |---------------------------------------------------------------|
A |----5/7-777------5/7-777---------------------------------------|
E |----5/7-777------5/7-777---------------------------------------|
B |----3/5-555--00--3/5-555--00--8~-8~-8~-7h8-7h8-7~--------------|
                ..           ..
       D E      B   D E      B   G        F# G F# G F#

   Ending                       Doom end
B |----------------------------|----------------------------------|
F#|----------------------------|----------------------------------|
D |----------------------------|----------------------------------|
A |----------------------------|----------------------------------|
E |----------------------------|----------------------------------|
B |----5-55-4-44-1-1111-0-1-2--|----5b--4b--1b--------------------|
Добавлено: 20.11.2013
Другие материалы по этой песне:
  • Аккорды и текст

Страница создана 20.11.2013
http://primanota.ru/electric-wizard/black-mass-chords.htm
Привет, Гость.
Предлагаем пройти революционный курс по гитаре.
Подарок от PrimaNota.Ru, забирай!