PrimaNota.ru - самый крупный в мире бесплатный архив песенных текстов, аккордов, табулатур и нот


Electric Wizard - Legalise Drugs And Murder - таба, видео

Регистрация Запомнить меня
Войти через:  Facebook Google Twitter Vk Yandex Mail.ru

Electric Wizard - Legalise Drugs And Murder - таба, видео

Печатать
Просмотров: 90
-------------------------------------------------------------------------------
                  Legalise Drugs And Murder - Electric Wizard
-------------------------------------------------------------------------------
Tabbed by: VakiPitsi

Tuning: Drop C (CGCFAD)

  Gtr 1 (0:00-0-56)
D|--------------------------------|
A|--------------------------------|
F|--------------------------------|
C|-44444/777/11-11-11-11\777------|
G|-44444/777/11-11-11-11\777------|
C|-44444/777/11-11-11-11\777------|
  
  Gtr 2 (0:40-1:00)
D|--------------------------------|
A|-5h7-7-5h7-7-5h7-7-5h7/10-------|
F|--------------------------------|
C|--------------------------------|
G|--------------------------------|
C|--------------------------------|
  
  Gtr 1 (0:57-1:27)
D|--------------------------------|
A|--------------------------------|
F|--------------------------------|
C|-4444\3-2/7~~~------------------|
G|-4444\3-2/7~~~------------------|
C|-4444\3-2/7~~~------------------|
 
  Gtr 2 (1:12-1:27)
e|--------------------------------|
B|--------------------------------|
G|--------------------------------|
D|--4~~~~~~-4b--------------------|
A|--------------------------------|
E|--------------------------------|
 
All of the above riffs are repeated a couple of times throughout the song

 Solo (3:27-4:00)
D|--------------------------------------------------------------------------------------------------|
A|--------------------------------------10-9-10/12-121212/14-141414/17-171717/19-191919b------------|
F|-9h11-11-9h11-11-9h11-11-9h11-11-9h11-------------------------------------------------------------|
C|--------------------------------------------------------------------------------------------------|
G|--------------------------------------------------------------------------------------------------|
C|--------------------------------------------------------------------------------------------------|

D|---------------------------------------------------------------------------------------------------------|
A|-12121212121212b12-10------------------------------------------------------------------------------------|
F|----------------------11-9h11-9h11-9h11-9h11-9h11-9h11-9h11/14~~~14/16-16~~~-16/18-18~~~-18/21~~~~~~21b--|
C|---------------------------------------------------------------------------------------------------------|
G|---------------------------------------------------------------------------------------------------------|
C|---------------------------------------------------------------------------------------------------------|
  
 Gtr 1 (3:58-4:26)
D|----------------------------------------|
A|----------------------------------------|
F|----------------------------------------|
C|-6666666--------------------------------|
G|-6666666-11-11b-------------------------|
C|-6666666--------------------------------|
  
  Gtr 1 (4:26-end)
D|----------------------------------------|
A|----------------------------------------|
F|----------------------------------------|
C|-4444-2222-0000-------------------------|
G|-4444-2222-0000-------------------------|
C|-4444-2222-0000-------------------------|

  Gtr 2 (4:33-4:53)
D|----------------------------------------|
A|----------------------------------------|
F|----------------------------------------|
C|--4-4p2-4/6-6p4-6/7-4\2-4---------------|
G|----------------------------------------|
C|----------------------------------------|

  Gtr 2 (4:53-5:25)
D|----------------------------------------|
A|----------------------------------------|
F|-11-11p9-11/13-13p11-13/14-11\9-11------|
C|----------------------------------------|
G|----------------------------------------|
C|----------------------------------------|

  Gtr 2 Outro Solo(5:25-end)
D|-------------------------------------------------------------------------------------------------------|
A|-----------------------------------10-9-10/12-121212/14-141414/17-171717/19-17h19-17h19-17h19-17h19----|
F|-11-11p9-11/13-13p11-13/14-11\9-11---------------------------------------------------------------------|
C|-------------------------------------------------------------------------------------------------------|
G|-------------------------------------------------------------------------------------------------------|
C|-------------------------------------------------------------------------------------------------------|

D|---------------------------------------------------------------------|
A|-19p17p1419p17p1419p17p1419p17p1419p17p14--9h10-12brp10----10--------|
F|--------------------------------------------------------11----11-----| the song starts to fade after that
C|---------------------------------------------------------------------| but you can improvise a bit
G|---------------------------------------------------------------------|
C|---------------------------------------------------------------------|

************************************

| /   slide up
| \   slide down
| h   hammer-on
| p   pull-off
| ~   vibrato
| +   harmonic
| x   Mute note
| b   Bend
| pb  Pre-bend
| br  Bend release
| pbr Pre-bend release
| brb Bend release bend

************************************
Добавлено: 09.05.2016
Вам также может быть интересно:
Другие материалы по этой песне:
  • Аккорды и текст

Страница создана 09.05.2016
http://primanota.ru/electric-wizard/legalise-drugs-and-murder-chords.htm
Привет, Гость.
Предлагаем пройти революционный курс по гитаре.
Подарок от PrimaNota.Ru, забирай!