PrimaNota.ru - самый крупный в мире бесплатный архив песенных текстов, аккордов, табулатур и нот


Electric Wizard - Weird Tales Electric Frost - таба, видео

Регистрация Запомнить меня
Войти через:  Facebook Google Twitter Vk Yandex Mail.ru

Electric Wizard - Weird Tales Electric Frost - таба, видео

Печатать
Просмотров: 35
Electric Wizard
"Weird Tales"
(Electric Frost)

Tuning(low to high):
Bb Eb Ab Db F Bb
A# D# G# C# F A#
(3 whole steps down from standard,
standard B tuning down a 1/2 step.)

Verse/Main riff

A#-------------------------------
F--------------------------------
C#-------------------------------
G#-------------------------------
D#--9--9--9--8--9-9-9------------
A#--7--7--7--6--7-7-7--/14--14---


Post-Verse Riff #1

A#-------------------------
F--------------------------
C#-------------------------
G#-------------------------
D#--9--9--9--8-9--12--10b--
A#--7--7--7--6-7--10--8b---


Post-Verse Riff #2

A#-------------------------------
F--------------------------------
C#-------------------------------
G#--/7-7-7--/7-7-----------------
D#----------------3-3-3--6-6-3---
A#--/5-5-5--/5-5--1-1-1--4-4-1---

Midsection Riff

(alternately palm muted)

A#--------------------------------
F---------------------------------
C#--------------------------------
G#--------------------------------
D#--6-6-6--5-/6--4-5--3--4--3b----
A#--4-4-4--3-/4--2-3--1--2--1b----

At the end of Electric Frost
a 2nd guitar plays an ocatave:

A#--19-19-19-19-19-19-19-19-19--
F-------------------------------
C#--16-16-16-16-16-16-16-16-16--
G#------------------------------
D#------------------------------
A#------------------------------



Lyrics:

From ancient Yuggoth black rays 
emit
Evil narcotic cyclopean pits
In dark babelian towers await
Lie dreaming until the time will 
awake

What man has seen unknown Kadath
Whose dreamy angles, confused and
trapped
Beyond the frozen waste you will 
find
Hyperborean continent entombed
from time

Black chant mirrors the son of the
stars
Open the abyss dreamt from afar
Abominations drawn to our 
dimension
Feed black desires aid human
ascension

Black chanting grows
From caverns below
Echo through time
Reveal the sign 

---------------------

That's all, thank you for viewing.
Enjoy this great song by the Wizard








Добавлено: 09.05.2016
Другие материалы по этой песне:
  • Аккорды и текст

Страница создана 09.05.2016
http://primanota.ru/electric-wizard/weird-tales-electric-frost-chords.htm
Привет, Гость.
Предлагаем пройти революционный курс по гитаре.
Подарок от PrimaNota.Ru, забирай!